  0
SECTION
  2
HEADER
  9
$ACADVER
  1
AC1009
  9
$INSBASE
 10
0
 20
0
 30
0
  9
$EXTMIN
 10
0
 20
0
  9
$EXTMAX
 10
297
 20
210
  9
$LIMMIN
 10
0
 20
0
  9
$LIMMAX
 10
297
 20
210
  9
$LTSCALE
 40
1
  0
ENDSEC
  0
SECTION
  2
TABLES
  0
TABLE
  2
LTYPE
 70
     9
  0
LTYPE
  2
CONTINUOUS
 70
    64
  3
実線
 72
    65
 73
     0
 40
0.0
  0
LTYPE
  2
DASHED1
 70
    64
  3
--  --  --  --  --  --  --  --  
 72
    65
 73
     2
 40
2.5
 49
1.25
 49
-1.25
  0
LTYPE
  2
DASHED2
 70
    64
  3
----    ----    ----    ----    
 72
    65
 73
     2
 40
5.0
 49
2.5
 49
-2.5
  0
LTYPE
  2
DASHED3
 70
    64
  3
------  ------  ------  ------  
 72
    65
 73
     2
 40
5.0
 49
3.75
 49
-1.25
  0
LTYPE
  2
CENTER1
 70
    64
  3
----- - ----- - ----- - ----- - 
 72
    65
 73
     4
 40
10.0
 49
6.25
 49
-1.25
 49
1.25
 49
-1.25
  0
LTYPE
  2
CENTER2
 70
    64
  3
----------  --  ----------  --  
 72
    65
 73
     4
 40
20.0
 49
12.5
 49
-2.5
 49
2.5
 49
-2.5
  0
LTYPE
  2
PHANTOM1
 70
    64
  3
--- - - --- - - --- - - --- - - 
 72
    65
 73
     6
 40
10.0
 49
3.25
 49
-1.25
 49
1.25
 49
-1.25
 49
1.25
 49
-1.25
  0
LTYPE
  2
PHANTOM2
 70
    64
  3
--------  -  -  --------  -  -  
 72
    65
 73
     6
 40
20.0
 49
10.0
 49
-2.5
 49
1.25
 49
-2.5
 49
1.25
 49
-2.5
  0
LTYPE
  2
DOT
 70
    64
  3
-   -   -   -   -   -   -   -   
 72
    65
 73
     2
 40
2.5
 49
0.625
 49
-1.875
  0
LTYPE
  2
DUMMY
 70
    64
  3
ダミー
 72
    65
 73
     0
 40
0.0
  0
LTYPE
  2
RAND1
 70
    64
  3
ランダム線1
 72
    65
 73
     4
 40
10.0
 49
1.0
 49
-2.0
 49
3.0
 49
-4.0
  0
LTYPE
  2
RAND2
 70
    64
  3
ランダム線2
 72
    65
 73
     4
 40
14.0
 49
2.0
 49
-3.0
 49
4.0
 49
-5.0
  0
LTYPE
  2
RAND3
 70
    64
  3
ランダム線3
 72
    65
 73
     4
 40
18.0
 49
3.0
 49
-4.0
 49
5.0
 49
-6.0
  0
LTYPE
  2
RAND4
 70
    64
  3
ランダム線4
 72
    65
 73
     4
 40
22.0
 49
4.0
 49
-5.0
 49
6.0
 49
-7.0
  0
LTYPE
  2
RAND5
 70
    64
  3
ランダム線5
 72
    65
 73
     4
 40
26.0
 49
5.0
 49
-6.0
 49
7.0
 49
-8.0
  0
LTYPE
  2
LONG1
 70
    64
  3
----------  --  ----------  --  
 72
    65
 73
     4
 40
40.0
 49
32.5
 49
-2.5
 49
2.5
 49
-2.5
  0
LTYPE
  2
LONG2
 70
    64
  3
--------  -  -  --------  -  -  
 72
    65
 73
     6
 40
40.0
 49
30.0
 49
-2.5
 49
1.25
 49
-2.5
 49
1.25
 49
-2.5
  0
LTYPE
  2
LONG3
 70
    64
  3
+++++++++++++++..+++++++++++++++
 72
    65
 73
     2
 40
40.0
 49
37.5
 49
-2.5
  0
LTYPE
  2
LONG4
 70
    64
  3
+++++++++++++++..+++++++++++++++
 72
    65
 73
     2
 40
80.0
 49
75.0
 49
-5.0
  0
LTYPE
  2
LONG5
 70
    64
  3
----------  --  ----------  --  
 72
    65
 73
     4
 40
60.0
 49
37.5
 49
-7.5
 49
7.5
 49
-7.5
  0
LTYPE
  2
dashed
 70
   64
  3
-------   -------------   ------
 72
   65
 73
    2
 40
7.5
 49
6
 49
-1.5
  0
LTYPE
  2
dashed_spaced
 70
   64
  3
----        --------        ----
 72
   65
 73
    2
 40
12
 49
6
 49
-6
  0
LTYPE
  2
long_dashed_dotted
 70
   64
  3
------------- --- --------------
 72
   65
 73
    4
 40
15.25
 49
12
 49
-1.5
 49
0.25
 49
-1.5
  0
LTYPE
  2
long_dashed_double-dotted
 70
   64
  3
----------- --- --- ------------
 72
   65
 73
    6
 40
17
 49
12
 49
-1.5
 49
0.25
 49
-1.5
 49
0.25
 49
-1.5
  0
LTYPE
  2
long_dashed_triplicate-dotted
 70
   64
  3
--------- --- --- --- ----------
 72
   65
 73
    8
 40
18.75
 49
12
 49
-1.5
 49
0.25
 49
-1.5
 49
0.25
 49
-1.5
 49
0.25
 49
-1.5
  0
LTYPE
  2
dotted
 70
   64
  3
   -       -       -       -    
 72
   65
 73
    2
 40
1.75
 49
0.25
 49
-1.5
  0
LTYPE
  2
chain
 70
   64
  3
-------------- -- --------------
 72
   65
 73
    4
 40
18.5
 49
12
 49
-1.5
 49
3.5
 49
-1.5
  0
LTYPE
  2
chain_double_dash
 70
   64
  3
------------ -- -- -------------
 72
   65
 73
    6
 40
23.5
 49
12
 49
-1.5
 49
3.5
 49
-1.5
 49
3.5
 49
-1.5
  0
LTYPE
  2
dashed_dotted
 70
   64
  3
-----------     -     ----------
 72
   65
 73
    4
 40
9.25
 49
6
 49
-1.5
 49
0.25
 49
-1.5
  0
LTYPE
  2
double-dashed_dotted
 70
   64
  3
------   -----------   -   -----
 72
   65
 73
    6
 40
16.75
 49
6
 49
-1.5
 49
6
 49
-1.5
 49
0.25
 49
-1.5
  0
LTYPE
  2
dashed_double-dotted
 70
   64
  3
---------    -    -    ---------
 72
   65
 73
    6
 40
11
 49
6
 49
-1.5
 49
0.25
 49
-1.5
 49
0.25
 49
-1.5
  0
LTYPE
  2
double-dashed_double-dotted
 70
   64
  3
-----   ---------   -   -   ----
 72
   65
 73
    8
 40
18.5
 49
6
 49
-1.5
 49
6
 49
-1.5
 49
0.25
 49
-1.5
 49
0.25
 49
-1.5
  0
LTYPE
  2
dashed_triplicate-dotted
 70
   64
  3
-------    -    -    -    ------
 72
   65
 73
    8
 40
12.75
 49
6
 49
-1.5
 49
0.25
 49
-1.5
 49
0.25
 49
-1.5
 49
0.25
 49
-1.5
  0
LTYPE
  2
double-dashed_triplicate-dotted
 70
   64
  3
-----  ---------  -  -  -  -----
 72
   65
 73
   10
 40
20.25
 49
6
 49
-1.5
 49
6
 49
-1.5
 49
0.25
 49
-1.5
 49
0.25
 49
-1.5
 49
0.25
 49
-1.5
  0
LTYPE
  2
undefined
 70
   64
  3
--------------------------------
 72
   65
 73
    0
 40
0
  0
LTYPE
  2
BORDER
 70
   64
  3
----     --------     -     ----
 72
   65
 73
    6
 40
1.76
 49
0.5
 49
-0.25
 49
0.5
 49
-0.25
 49
0.01
 49
-0.25
  0
LTYPE
  2
BORDER2
 70
   64
  3
----     --------     -     ----
 72
   65
 73
    6
 40
0.885
 49
0.25
 49
-0.125
 49
0.25
 49
-0.125
 49
0.01
 49
-0.125
  0
LTYPE
  2
BORDERX2
 70
   64
  3
----     --------     -     ----
 72
   65
 73
    6
 40
3.5099999999999998
 49
1
 49
-0.5
 49
1
 49
-0.5
 49
0.01
 49
-0.5
  0
LTYPE
  2
CENTER
 70
   64
  3
----------    ----    ----------
 72
   65
 73
    4
 40
2
 49
1.25
 49
-0.25
 49
0.25
 49
-0.25
  0
LTYPE
  2
CENTER2_21
 70
   64
  3
----------    ----    ----------
 72
   65
 73
    4
 40
1.125
 49
0.75
 49
-0.125
 49
0.125
 49
-0.125
  0
LTYPE
  2
CENTERX2
 70
   64
  3
----------    ----    ----------
 72
   65
 73
    4
 40
4
 49
2.5
 49
-0.5
 49
0.5
 49
-0.5
  0
LTYPE
  2
DASHDOT
 70
   64
  3
--------        -        -------
 72
   65
 73
    4
 40
1.01
 49
0.5
 49
-0.25
 49
0.01
 49
-0.25
  0
LTYPE
  2
DASHDOT2
 70
   64
  3
--------        -        -------
 72
   65
 73
    4
 40
0.51
 49
0.25
 49
-0.125
 49
0.01
 49
-0.125
  0
LTYPE
  2
DASHDOTX2
 70
   64
  3
--------        -        -------
 72
   65
 73
    4
 40
2.0099999999999998
 49
1
 49
-0.5
 49
0.01
 49
-0.5
  0
LTYPE
  2
DASHED
 70
   64
  3
------     -----------     -----
 72
   65
 73
    2
 40
0.75
 49
0.5
 49
-0.25
  0
LTYPE
  2
DASHED2_27
 70
   64
  3
------     -----------     -----
 72
   65
 73
    2
 40
0.375
 49
0.25
 49
-0.125
  0
LTYPE
  2
DASHEDX2
 70
   64
  3
------     -----------     -----
 72
   65
 73
    2
 40
1.5
 49
1
 49
-0.5
  0
LTYPE
  2
DIVIDE
 70
   64
  3
------      -      -      ------
 72
   65
 73
    6
 40
1.27
 49
0.5
 49
-0.25
 49
0.01
 49
-0.25
 49
0.01
 49
-0.25
  0
LTYPE
  2
DIVIDE2
 70
   64
  3
------      -      -      ------
 72
   65
 73
    6
 40
0.645
 49
0.25
 49
-0.125
 49
0.01
 49
-0.125
 49
0.01
 49
-0.125
  0
LTYPE
  2
DIVIDEX2
 70
   64
  3
------      -      -      ------
 72
   65
 73
    6
 40
2.5199999999999996
 49
1
 49
-0.5
 49
0.01
 49
-0.5
 49
0.01
 49
-0.5
  0
LTYPE
  2
DOT_32
 70
   64
  3
-               -               
 72
   65
 73
    2
 40
0.26
 49
0.01
 49
-0.25
  0
ENDTAB
  0
TABLE
  2
STYLE
  5
3
100
AcDbSymbolTable
 70
     1
  0
STYLE
  5
10
100
AcDbSymbolTableRecord
100
AcDbTextStyleTableRecord
  2
STANDARD
 70
     0
 40
0.0
 41
1.0
 50
0.0
 71
     0
 42
0.2
  3
txt
  4
bigfont.shx
  0
STYLE
  5
26
100
AcDbSymbolTableRecord
100
AcDbTextStyleTableRecord
  2
TATEGAKI
 70
    68
 40
0.0
 41
1.0
 50
0.0
 71
     0
 42
1.0
  3
txt
  4
bigfont.shx
  0
ENDTAB
  0
TABLE
  2
LAYER
 70
    2
  0
LAYER
  2
_0-4_P-6853
 70
   64
 62
    7
  6
CONTINUOUS
  0
LAYER
  2
ADD_LINE
 70
   64
 62
    7
  6
CONTINUOUS
  0
ENDTAB
  0
ENDSEC
  0
SECTION
  2
BLOCKS
  0
ENDSEC
  0
SECTION
  2
ENTITIES
  0
LINE
  8
_0-4_P-6853
  6
CONTINUOUS
 62
    7
 10
161.05239123923602
 20
160.82164975783564
 11
161.05239123923602
 21
155.82164975783564
  0
LINE
  8
_0-4_P-6853
  6
CONTINUOUS
 62
    7
 10
136.05239123923602
 20
160.82164975783564
 11
136.05239123923602
 21
155.82164975783564
  0
LINE
  8
_0-4_P-6853
  6
CONTINUOUS
 62
    7
 10
136.05239123923602
 20
160.82164975783564
 11
161.05239123923602
 21
160.82164975783564
  0
ARC
  8
_0-4_P-6853
  6
CONTINUOUS
 62
    7
 10
161.05239123923602
 20
151.82164975783564
 40
4
 50
270
 51
90
  0
ARC
  8
_0-4_P-6853
  6
CONTINUOUS
 62
    7
 10
136.05239123923602
 20
151.82164975783564
 40
4
 50
90
 51
270
  0
LINE
  8
_0-4_P-6853
  6
CONTINUOUS
 62
    7
 10
136.05239123923602
 20
155.82164975783564
 11
161.05239123923602
 21
155.82164975783564
  0
LINE
  8
_0-4_P-6853
  6
CONTINUOUS
 62
    7
 10
161.05239123923602
 20
147.82164975783564
 11
136.05239123923602
 21
147.82164975783564
  0
LINE
  8
_0-4_P-6853
  6
CONTINUOUS
 62
    7
 10
161.05239123923602
 20
147.82164975783564
 11
161.05239123923602
 21
144.82164975783564
  0
LINE
  8
_0-4_P-6853
  6
CONTINUOUS
 62
    7
 10
163.55239123923602
 20
141.32164975783564
 11
163.55239123923602
 21
143.32164975783564
  0
ARC
  8
_0-4_P-6853
  6
CONTINUOUS
 62
    7
 10
161.86260073338204
 20
143.1208198877207
 40
1.7016828701037761
 50
6.7777519129140078
 51
91.814224270644573
  0
LINE
  8
_0-4_P-6853
  6
CONTINUOUS
 62
    7
 10
161.80872733243618
 20
144.82164975783564
 11
161.05239123923602
 21
144.82164975783564
  0
LINE
  8
_0-4_P-6853
  6
CONTINUOUS
 62
    7
 10
133.55239123923602
 20
141.32164975783564
 11
133.55239123923602
 21
143.32164975783564
  0
ARC
  8
_0-4_P-6853
  6
CONTINUOUS
 62
    7
 10
135.24218174508999
 20
143.1208198877207
 40
1.7016828701037761
 50
88.185775729355385
 51
173.22224808708597
  0
LINE
  8
_0-4_P-6853
  6
CONTINUOUS
 62
    7
 10
135.29605514603585
 20
144.82164975783564
 11
136.05239123923602
 21
144.82164975783564
  0
LINE
  8
_0-4_P-6853
  6
CONTINUOUS
 62
    7
 10
161.05239123923602
 20
144.82164975783564
 11
136.05239123923602
 21
144.82164975783564
  0
LINE
  8
_0-4_P-6853
  6
CENTER2
 62
    1
 10
148.55239123923607
 20
102.932581811503
 11
148.55239123923602
 21
163.74339269855699
  0
LINE
  8
_0-4_P-6853
  6
CONTINUOUS
 62
    7
 10
163.55239123923602
 20
141.32164975783564
 11
133.55239123923602
 21
141.32164975783564
  0
LINE
  8
_0-4_P-6853
  6
CONTINUOUS
 62
    7
 10
136.05239123923602
 20
147.82164975783564
 11
136.05239123923602
 21
144.82164975783564
  0
ARC
  8
_0-4_P-6853
  6
CONTINUOUS
 62
    2
 10
139.95291211988999
 20
151.82164975783564
 40
11.80123204986225
 50
340.18722713681018
 51
19.812772863189814
  0
LINE
  8
_0-4_P-6853
  6
CONTINUOUS
 62
    2
 10
151.05557296739389
 20
147.82164975783564
 11
151.05557296739389
 21
144.82164975783564
  0
ARC
  8
_0-4_P-6853
  6
CONTINUOUS
 62
    2
 10
144.98609678081172
 20
141.90851860936698
 40
6.7323750837031042
 50
354.99911408532171
 51
25.6393376829948
  0
LINE
  8
_0-4_P-6853
  6
CONTINUOUS
 62
    2
 10
151.05557296739389
 20
155.82164975783564
 11
151.05557296739389
 21
160.82164975783564
  0
ARC
  8
_0-4_P-6853
  6
CONTINUOUS
 62
    7
 10
163.55239123923602
 20
133.82164975783559
 40
7.5
 50
270
 51
90
  0
ARC
  8
_0-4_P-6853
  6
CONTINUOUS
 62
    7
 10
133.55239123923602
 20
133.82164975783559
 40
7.5
 50
90
 51
270
  0
LINE
  8
_0-4_P-6853
  6
CONTINUOUS
 62
    7
 10
161.05239123923602
 20
106.82164975783566
 11
161.05239123923602
 21
111.82164975783566
  0
LINE
  8
_0-4_P-6853
  6
CONTINUOUS
 62
    7
 10
136.05239123923602
 20
106.82164975783566
 11
136.05239123923602
 21
111.82164975783566
  0
LINE
  8
_0-4_P-6853
  6
CONTINUOUS
 62
    7
 10
136.05239123923602
 20
106.82164975783566
 11
161.05239123923602
 21
106.82164975783566
  0
ARC
  8
_0-4_P-6853
  6
CONTINUOUS
 62
    7
 10
161.05239123923602
 20
115.82164975783566
 40
4
 50
270
 51
90
  0
ARC
  8
_0-4_P-6853
  6
CONTINUOUS
 62
    7
 10
136.05239123923602
 20
115.82164975783566
 40
4
 50
90
 51
270
  0
LINE
  8
_0-4_P-6853
  6
CONTINUOUS
 62
    7
 10
136.05239123923602
 20
111.82164975783566
 11
161.05239123923602
 21
111.82164975783566
  0
LINE
  8
_0-4_P-6853
  6
CONTINUOUS
 62
    7
 10
161.05239123923602
 20
119.82164975783566
 11
136.05239123923602
 21
119.82164975783566
  0
LINE
  8
_0-4_P-6853
  6
CONTINUOUS
 62
    7
 10
161.05239123923602
 20
119.82164975783566
 11
161.05239123923602
 21
122.82164975783566
  0
LINE
  8
_0-4_P-6853
  6
CONTINUOUS
 62
    7
 10
163.55239123923602
 20
126.32164975783566
 11
163.55239123923602
 21
124.32164975783566
  0
ARC
  8
_0-4_P-6853
  6
CONTINUOUS
 62
    7
 10
161.86260073338204
 20
124.52247962795059
 40
1.7016828701037761
 50
268.18577572935533
 51
353.22224808708432
  0
LINE
  8
_0-4_P-6853
  6
CONTINUOUS
 62
    7
 10
161.80872733243618
 20
122.82164975783569
 11
161.05239123923602
 21
122.82164975783569
  0
LINE
  8
_0-4_P-6853
  6
CONTINUOUS
 62
    7
 10
133.55239123923602
 20
126.32164975783566
 11
133.55239123923602
 21
124.32164975783566
  0
ARC
  8
_0-4_P-6853
  6
CONTINUOUS
 62
    7
 10
135.24218174508999
 20
124.52247962795059
 40
1.7016828701037761
 50
186.77775191291559
 51
271.81422427064462
  0
LINE
  8
_0-4_P-6853
  6
CONTINUOUS
 62
    7
 10
135.29605514603585
 20
122.82164975783569
 11
136.05239123923602
 21
122.82164975783569
  0
LINE
  8
_0-4_P-6853
  6
CONTINUOUS
 62
    7
 10
161.05239123923602
 20
122.82164975783569
 11
136.05239123923602
 21
122.82164975783566
  0
LINE
  8
_0-4_P-6853
  6
CONTINUOUS
 62
    7
 10
163.55239123923602
 20
126.32164975783566
 11
133.55239123923602
 21
126.32164975783566
  0
LINE
  8
_0-4_P-6853
  6
CONTINUOUS
 62
    7
 10
136.05239123923602
 20
119.82164975783566
 11
136.05239123923602
 21
122.82164975783566
  0
ARC
  8
_0-4_P-6853
  6
CONTINUOUS
 62
    2
 10
139.95291211988999
 20
115.82164975783566
 40
11.80123204986225
 50
340.18722713681018
 51
19.812772863189814
  0
LINE
  8
_0-4_P-6853
  6
CONTINUOUS
 62
    2
 10
151.05557296739389
 20
119.82164975783566
 11
151.05557296739389
 21
122.82164975783569
  0
ARC
  8
_0-4_P-6853
  6
CONTINUOUS
 62
    2
 10
144.98609678081172
 20
125.73478090630431
 40
6.7323750837031033
 50
334.3606623170067
 51
5.00088591467828
  0
LINE
  8
_0-4_P-6853
  6
CONTINUOUS
 62
    2
 10
151.05557296739389
 20
111.82164975783566
 11
151.05557296739389
 21
106.82164975783566
  0
ARC
  8
_0-4_P-6853
  6
CONTINUOUS
 62
    2
 10
134.90062072234591
 20
133.8216497578357
 40
18.390996846334922
 50
335.93277415803152
 51
24.067225841968494
  0
ARC
  8
_0-4_P-6853
  6
CONTINUOUS
 62
    2
 10
157.15187035858216
 20
151.82164975783564
 40
11.80123204986225
 50
160.18722713681009
 51
199.81277286318979
  0
LINE
  8
_0-4_P-6853
  6
CONTINUOUS
 62
    2
 10
146.04920951107826
 20
147.82164975783564
 11
146.04920951107826
 21
144.82164975783564
  0
ARC
  8
_0-4_P-6853
  6
CONTINUOUS
 62
    2
 10
152.11868569766042
 20
141.90851860936698
 40
6.7323750837031042
 50
154.36066231700519
 51
185.00088591467821
  0
LINE
  8
_0-4_P-6853
  6
CONTINUOUS
 62
    2
 10
146.04920951107826
 20
155.82164975783564
 11
146.04920951107826
 21
160.82164975783564
  0
ARC
  8
_0-4_P-6853
  6
CONTINUOUS
 62
    2
 10
157.15187035858216
 20
115.82164975783566
 40
11.80123204986225
 50
160.18722713681009
 51
199.81277286318979
  0
LINE
  8
_0-4_P-6853
  6
CONTINUOUS
 62
    2
 10
146.04920951107826
 20
119.82164975783566
 11
146.04920951107826
 21
122.82164975783569
  0
ARC
  8
_0-4_P-6853
  6
CONTINUOUS
 62
    2
 10
152.11868569766042
 20
125.73478090630431
 40
6.7323750837031033
 50
174.99911408532006
 51
205.63933768299478
  0
LINE
  8
_0-4_P-6853
  6
CONTINUOUS
 62
    2
 10
146.04920951107826
 20
111.82164975783566
 11
146.04920951107826
 21
106.82164975783566
  0
ARC
  8
_0-4_P-6853
  6
CONTINUOUS
 62
    2
 10
162.20416175612624
 20
133.8216497578357
 40
18.390996846334922
 50
155.932774158033
 51
204.06722584196703
  0
ARC
  8
_0-4_P-6853
  6
CONTINUOUS
 62
    2
 10
144.45634216558571
 20
151.82164975783564
 40
11.80123204986225
 50
340.18722713681018
 51
19.812772863189814
  0
LINE
  8
_0-4_P-6853
  6
CONTINUOUS
 62
    2
 10
155.55900301308961
 20
147.82164975783564
 11
155.55900301308961
 21
144.82164975783564
  0
ARC
  8
_0-4_P-6853
  6
CONTINUOUS
 62
    2
 10
149.48952682650744
 20
141.90851860936698
 40
6.7323750837031042
 50
354.99911408532171
 51
25.6393376829948
  0
LINE
  8
_0-4_P-6853
  6
CONTINUOUS
 62
    2
 10
155.55900301308961
 20
155.82164975783564
 11
155.55900301308961
 21
160.82164975783564
  0
ARC
  8
_0-4_P-6853
  6
CONTINUOUS
 62
    2
 10
144.45634216558571
 20
115.82164975783566
 40
11.80123204986225
 50
340.18722713681018
 51
19.812772863189814
  0
LINE
  8
_0-4_P-6853
  6
CONTINUOUS
 62
    2
 10
155.55900301308961
 20
119.82164975783566
 11
155.55900301308961
 21
122.82164975783569
  0
ARC
  8
_0-4_P-6853
  6
CONTINUOUS
 62
    2
 10
149.48952682650744
 20
125.73478090630431
 40
6.7323750837031033
 50
334.3606623170067
 51
5.00088591467828
  0
LINE
  8
_0-4_P-6853
  6
CONTINUOUS
 62
    2
 10
155.55900301308961
 20
111.82164975783566
 11
155.55900301308961
 21
106.82164975783566
  0
ARC
  8
_0-4_P-6853
  6
CONTINUOUS
 62
    2
 10
147.01404759030757
 20
133.82164975783576
 40
11.85593876451043
 50
320.758209832224
 51
39.24179016777601
  0
ARC
  8
_0-4_P-6853
  6
CONTINUOUS
 62
    2
 10
148.79325841276679
 20
151.82164975783564
 40
11.80123204986225
 50
340.18722713681018
 51
19.812772863189814
  0
LINE
  8
_0-4_P-6853
  6
CONTINUOUS
 62
    2
 10
159.89591926027069
 20
147.82164975783564
 11
159.89591926027069
 21
144.82164975783564
  0
ARC
  8
_0-4_P-6853
  6
CONTINUOUS
 62
    2
 10
153.82644307368852
 20
141.90851860936698
 40
6.7323750837031042
 50
354.99911408532171
 51
25.6393376829948
  0
LINE
  8
_0-4_P-6853
  6
CONTINUOUS
 62
    2
 10
159.89591926027069
 20
155.82164975783564
 11
159.89591926027069
 21
160.82164975783564
  0
ARC
  8
_0-4_P-6853
  6
CONTINUOUS
 62
    2
 10
148.79325841276679
 20
115.82164975783566
 40
11.80123204986225
 50
340.18722713681018
 51
19.812772863189814
  0
LINE
  8
_0-4_P-6853
  6
CONTINUOUS
 62
    2
 10
159.89591926027069
 20
119.82164975783566
 11
159.89591926027069
 21
122.82164975783569
  0
ARC
  8
_0-4_P-6853
  6
CONTINUOUS
 62
    2
 10
153.82644307368852
 20
125.73478090630431
 40
6.7323750837031033
 50
334.3606623170067
 51
5.00088591467828
  0
LINE
  8
_0-4_P-6853
  6
CONTINUOUS
 62
    2
 10
159.89591926027069
 20
111.82164975783566
 11
159.89591926027069
 21
106.82164975783566
  0
ARC
  8
_0-4_P-6853
  6
CONTINUOUS
 62
    2
 10
157.54033462335431
 20
133.8216497578357
 40
8.075096623911401
 50
291.75434393409023
 51
68.245656065910282
  0
ARC
  8
_0-4_P-6853
  6
CONTINUOUS
 62
    2
 10
152.64844031288632
 20
151.82164975783564
 40
11.80123204986225
 50
160.18722713681009
 51
199.81277286318979
  0
LINE
  8
_0-4_P-6853
  6
CONTINUOUS
 62
    2
 10
141.54577946538242
 20
147.82164975783564
 11
141.54577946538242
 21
144.82164975783564
  0
ARC
  8
_0-4_P-6853
  6
CONTINUOUS
 62
    2
 10
147.61525565196459
 20
141.90851860936698
 40
6.7323750837031042
 50
154.36066231700519
 51
185.00088591467821
  0
LINE
  8
_0-4_P-6853
  6
CONTINUOUS
 62
    2
 10
141.54577946538242
 20
155.82164975783564
 11
141.54577946538242
 21
160.82164975783564
  0
ARC
  8
_0-4_P-6853
  6
CONTINUOUS
 62
    2
 10
152.64844031288632
 20
115.82164975783566
 40
11.80123204986225
 50
160.18722713681009
 51
199.81277286318979
  0
LINE
  8
_0-4_P-6853
  6
CONTINUOUS
 62
    2
 10
141.54577946538242
 20
119.82164975783566
 11
141.54577946538242
 21
122.82164975783569
  0
ARC
  8
_0-4_P-6853
  6
CONTINUOUS
 62
    2
 10
147.61525565196459
 20
125.73478090630431
 40
6.7323750837031033
 50
174.99911408532006
 51
205.63933768299478
  0
LINE
  8
_0-4_P-6853
  6
CONTINUOUS
 62
    2
 10
141.54577946538242
 20
111.82164975783566
 11
141.54577946538242
 21
106.82164975783566
  0
ARC
  8
_0-4_P-6853
  6
CONTINUOUS
 62
    2
 10
150.09073488816446
 20
133.82164975783576
 40
11.85593876451043
 50
140.75820983222729
 51
219.24179016777268
  0
ARC
  8
_0-4_P-6853
  6
CONTINUOUS
 62
    2
 10
148.31152406570524
 20
151.82164975783564
 40
11.80123204986225
 50
160.18722713681009
 51
199.81277286318979
  0
LINE
  8
_0-4_P-6853
  6
CONTINUOUS
 62
    2
 10
137.20886321820134
 20
147.82164975783564
 11
137.20886321820134
 21
144.82164975783564
  0
ARC
  8
_0-4_P-6853
  6
CONTINUOUS
 62
    2
 10
143.27833940478351
 20
141.90851860936698
 40
6.7323750837031042
 50
154.36066231700519
 51
185.00088591467821
  0
LINE
  8
_0-4_P-6853
  6
CONTINUOUS
 62
    2
 10
137.20886321820134
 20
155.82164975783564
 11
137.20886321820134
 21
160.82164975783564
  0
ARC
  8
_0-4_P-6853
  6
CONTINUOUS
 62
    2
 10
148.31152406570524
 20
115.82164975783566
 40
11.80123204986225
 50
160.18722713681009
 51
199.81277286318979
  0
LINE
  8
_0-4_P-6853
  6
CONTINUOUS
 62
    2
 10
137.20886321820134
 20
119.82164975783566
 11
137.20886321820134
 21
122.82164975783569
  0
ARC
  8
_0-4_P-6853
  6
CONTINUOUS
 62
    2
 10
143.27833940478351
 20
125.73478090630431
 40
6.7323750837031033
 50
174.99911408532006
 51
205.63933768299478
  0
LINE
  8
_0-4_P-6853
  6
CONTINUOUS
 62
    2
 10
137.20886321820134
 20
111.82164975783566
 11
137.20886321820134
 21
106.82164975783566
  0
ARC
  8
_0-4_P-6853
  6
CONTINUOUS
 62
    2
 10
139.56444785511772
 20
133.8216497578357
 40
8.075096623911401
 50
111.75434393408661
 51
248.24565606591329
  0
LINE
  8
_0-4_P-6853
  6
CENTER2
 62
    1
 10
148.55239123923602
 20
98.053329700181706
 11
148.55239123923602
 21
46.256607301442997
  0
LINE
  8
_0-4_P-6853
  6
CENTER2
 62
    1
 10
122.70782451571293
 20
70.898156023586878
 11
174.29217548428707
 21
70.898156023586878
  0
CIRCLE
  8
_0-4_P-6853
  6
CONTINUOUS
 62
    7
 10
148.55239123923602
 20
70.898156023586878
 40
12.5
  0
CIRCLE
  8
_0-4_P-6853
  6
CONTINUOUS
 62
    7
 10
148.55239123923602
 20
70.898156023586935
 40
16.5
  0
CIRCLE
  8
_0-4_P-6853
  6
CONTINUOUS
 62
    7
 10
148.55239123923602
 20
70.898156023586822
 40
22.5
  0
LINE
  8
_0-4_P-6853
  6
CONTINUOUS
 62
    7
 10
141.05239123923602
 20
63.398156023586878
 11
141.05239123923602
 21
78.398156023586878
  0
LINE
  8
_0-4_P-6853
  6
CONTINUOUS
 62
    7
 10
141.05239123923602
 20
78.398156023586878
 11
156.05239123923602
 21
78.398156023586878
  0
LINE
  8
_0-4_P-6853
  6
CONTINUOUS
 62
    7
 10
156.05239123923602
 20
78.398156023586878
 11
156.05239123923602
 21
63.398156023586878
  0
LINE
  8
_0-4_P-6853
  6
CONTINUOUS
 62
    7
 10
156.05239123923602
 20
63.398156023586878
 11
141.05239123923602
 21
63.398156023586878
  0
ENDSEC
  0
EOF
