  0
SECTION
  2
HEADER
  9
$ACADVER
  1
AC1009
  9
$INSBASE
 10
0
 20
0
 30
0
  9
$EXTMIN
 10
0
 20
0
  9
$EXTMAX
 10
420
 20
297
  9
$LIMMIN
 10
0
 20
0
  9
$LIMMAX
 10
420
 20
297
  9
$LTSCALE
 40
1
  0
ENDSEC
  0
SECTION
  2
TABLES
  0
TABLE
  2
LTYPE
 70
     9
  0
LTYPE
  2
CONTINUOUS
 70
    64
  3
実線
 72
    65
 73
     0
 40
0.0
  0
LTYPE
  2
DASHED1
 70
    64
  3
--  --  --  --  --  --  --  --  
 72
    65
 73
     2
 40
2.5
 49
1.25
 49
-1.25
  0
LTYPE
  2
DASHED2
 70
    64
  3
----    ----    ----    ----    
 72
    65
 73
     2
 40
5.0
 49
2.5
 49
-2.5
  0
LTYPE
  2
DASHED3
 70
    64
  3
------  ------  ------  ------  
 72
    65
 73
     2
 40
5.0
 49
3.75
 49
-1.25
  0
LTYPE
  2
CENTER1
 70
    64
  3
----- - ----- - ----- - ----- - 
 72
    65
 73
     4
 40
10.0
 49
6.25
 49
-1.25
 49
1.25
 49
-1.25
  0
LTYPE
  2
CENTER2
 70
    64
  3
----------  --  ----------  --  
 72
    65
 73
     4
 40
20.0
 49
12.5
 49
-2.5
 49
2.5
 49
-2.5
  0
LTYPE
  2
PHANTOM1
 70
    64
  3
--- - - --- - - --- - - --- - - 
 72
    65
 73
     6
 40
10.0
 49
3.25
 49
-1.25
 49
1.25
 49
-1.25
 49
1.25
 49
-1.25
  0
LTYPE
  2
PHANTOM2
 70
    64
  3
--------  -  -  --------  -  -  
 72
    65
 73
     6
 40
20.0
 49
10.0
 49
-2.5
 49
1.25
 49
-2.5
 49
1.25
 49
-2.5
  0
LTYPE
  2
DOT
 70
    64
  3
-   -   -   -   -   -   -   -   
 72
    65
 73
     2
 40
2.5
 49
0.625
 49
-1.875
  0
LTYPE
  2
DUMMY
 70
    64
  3
ダミー
 72
    65
 73
     0
 40
0.0
  0
LTYPE
  2
RAND1
 70
    64
  3
ランダム線1
 72
    65
 73
     4
 40
10.0
 49
1.0
 49
-2.0
 49
3.0
 49
-4.0
  0
LTYPE
  2
RAND2
 70
    64
  3
ランダム線2
 72
    65
 73
     4
 40
14.0
 49
2.0
 49
-3.0
 49
4.0
 49
-5.0
  0
LTYPE
  2
RAND3
 70
    64
  3
ランダム線3
 72
    65
 73
     4
 40
18.0
 49
3.0
 49
-4.0
 49
5.0
 49
-6.0
  0
LTYPE
  2
RAND4
 70
    64
  3
ランダム線4
 72
    65
 73
     4
 40
22.0
 49
4.0
 49
-5.0
 49
6.0
 49
-7.0
  0
LTYPE
  2
RAND5
 70
    64
  3
ランダム線5
 72
    65
 73
     4
 40
26.0
 49
5.0
 49
-6.0
 49
7.0
 49
-8.0
  0
LTYPE
  2
LONG1
 70
    64
  3
----------  --  ----------  --  
 72
    65
 73
     4
 40
40.0
 49
32.5
 49
-2.5
 49
2.5
 49
-2.5
  0
LTYPE
  2
LONG2
 70
    64
  3
--------  -  -  --------  -  -  
 72
    65
 73
     6
 40
40.0
 49
30.0
 49
-2.5
 49
1.25
 49
-2.5
 49
1.25
 49
-2.5
  0
LTYPE
  2
LONG3
 70
    64
  3
+++++++++++++++..+++++++++++++++
 72
    65
 73
     2
 40
40.0
 49
37.5
 49
-2.5
  0
LTYPE
  2
LONG4
 70
    64
  3
+++++++++++++++..+++++++++++++++
 72
    65
 73
     2
 40
80.0
 49
75.0
 49
-5.0
  0
LTYPE
  2
LONG5
 70
    64
  3
----------  --  ----------  --  
 72
    65
 73
     4
 40
60.0
 49
37.5
 49
-7.5
 49
7.5
 49
-7.5
  0
LTYPE
  2
dashed
 70
   64
  3
-------   -------------   ------
 72
   65
 73
    2
 40
7.5
 49
6
 49
-1.5
  0
LTYPE
  2
dashed_spaced
 70
   64
  3
----        --------        ----
 72
   65
 73
    2
 40
12
 49
6
 49
-6
  0
LTYPE
  2
long_dashed_dotted
 70
   64
  3
------------- --- --------------
 72
   65
 73
    4
 40
15.25
 49
12
 49
-1.5
 49
0.25
 49
-1.5
  0
LTYPE
  2
long_dashed_double-dotted
 70
   64
  3
----------- --- --- ------------
 72
   65
 73
    6
 40
17
 49
12
 49
-1.5
 49
0.25
 49
-1.5
 49
0.25
 49
-1.5
  0
LTYPE
  2
long_dashed_triplicate-dotted
 70
   64
  3
--------- --- --- --- ----------
 72
   65
 73
    8
 40
18.75
 49
12
 49
-1.5
 49
0.25
 49
-1.5
 49
0.25
 49
-1.5
 49
0.25
 49
-1.5
  0
LTYPE
  2
dotted
 70
   64
  3
   -       -       -       -    
 72
   65
 73
    2
 40
1.75
 49
0.25
 49
-1.5
  0
LTYPE
  2
chain
 70
   64
  3
-------------- -- --------------
 72
   65
 73
    4
 40
18.5
 49
12
 49
-1.5
 49
3.5
 49
-1.5
  0
LTYPE
  2
chain_double_dash
 70
   64
  3
------------ -- -- -------------
 72
   65
 73
    6
 40
23.5
 49
12
 49
-1.5
 49
3.5
 49
-1.5
 49
3.5
 49
-1.5
  0
LTYPE
  2
dashed_dotted
 70
   64
  3
-----------     -     ----------
 72
   65
 73
    4
 40
9.25
 49
6
 49
-1.5
 49
0.25
 49
-1.5
  0
LTYPE
  2
double-dashed_dotted
 70
   64
  3
------   -----------   -   -----
 72
   65
 73
    6
 40
16.75
 49
6
 49
-1.5
 49
6
 49
-1.5
 49
0.25
 49
-1.5
  0
LTYPE
  2
dashed_double-dotted
 70
   64
  3
---------    -    -    ---------
 72
   65
 73
    6
 40
11
 49
6
 49
-1.5
 49
0.25
 49
-1.5
 49
0.25
 49
-1.5
  0
LTYPE
  2
double-dashed_double-dotted
 70
   64
  3
-----   ---------   -   -   ----
 72
   65
 73
    8
 40
18.5
 49
6
 49
-1.5
 49
6
 49
-1.5
 49
0.25
 49
-1.5
 49
0.25
 49
-1.5
  0
LTYPE
  2
dashed_triplicate-dotted
 70
   64
  3
-------    -    -    -    ------
 72
   65
 73
    8
 40
12.75
 49
6
 49
-1.5
 49
0.25
 49
-1.5
 49
0.25
 49
-1.5
 49
0.25
 49
-1.5
  0
LTYPE
  2
double-dashed_triplicate-dotted
 70
   64
  3
-----  ---------  -  -  -  -----
 72
   65
 73
   10
 40
20.25
 49
6
 49
-1.5
 49
6
 49
-1.5
 49
0.25
 49
-1.5
 49
0.25
 49
-1.5
 49
0.25
 49
-1.5
  0
LTYPE
  2
undefined
 70
   64
  3
--------------------------------
 72
   65
 73
    0
 40
0
  0
LTYPE
  2
BORDER
 70
   64
  3
----     --------     -     ----
 72
   65
 73
    6
 40
1.76
 49
0.5
 49
-0.25
 49
0.5
 49
-0.25
 49
0.01
 49
-0.25
  0
LTYPE
  2
BORDER2
 70
   64
  3
----     --------     -     ----
 72
   65
 73
    6
 40
0.885
 49
0.25
 49
-0.125
 49
0.25
 49
-0.125
 49
0.01
 49
-0.125
  0
LTYPE
  2
BORDERX2
 70
   64
  3
----     --------     -     ----
 72
   65
 73
    6
 40
3.5099999999999998
 49
1
 49
-0.5
 49
1
 49
-0.5
 49
0.01
 49
-0.5
  0
LTYPE
  2
CENTER
 70
   64
  3
----------    ----    ----------
 72
   65
 73
    4
 40
2
 49
1.25
 49
-0.25
 49
0.25
 49
-0.25
  0
LTYPE
  2
CENTER2_21
 70
   64
  3
----------    ----    ----------
 72
   65
 73
    4
 40
1.125
 49
0.75
 49
-0.125
 49
0.125
 49
-0.125
  0
LTYPE
  2
CENTERX2
 70
   64
  3
----------    ----    ----------
 72
   65
 73
    4
 40
4
 49
2.5
 49
-0.5
 49
0.5
 49
-0.5
  0
LTYPE
  2
DASHDOT
 70
   64
  3
--------        -        -------
 72
   65
 73
    4
 40
1.01
 49
0.5
 49
-0.25
 49
0.01
 49
-0.25
  0
LTYPE
  2
DASHDOT2
 70
   64
  3
--------        -        -------
 72
   65
 73
    4
 40
0.51
 49
0.25
 49
-0.125
 49
0.01
 49
-0.125
  0
LTYPE
  2
DASHDOTX2
 70
   64
  3
--------        -        -------
 72
   65
 73
    4
 40
2.0099999999999998
 49
1
 49
-0.5
 49
0.01
 49
-0.5
  0
LTYPE
  2
DASHED
 70
   64
  3
------     -----------     -----
 72
   65
 73
    2
 40
0.75
 49
0.5
 49
-0.25
  0
LTYPE
  2
DASHED2_27
 70
   64
  3
------     -----------     -----
 72
   65
 73
    2
 40
0.375
 49
0.25
 49
-0.125
  0
LTYPE
  2
DASHEDX2
 70
   64
  3
------     -----------     -----
 72
   65
 73
    2
 40
1.5
 49
1
 49
-0.5
  0
LTYPE
  2
DIVIDE
 70
   64
  3
------      -      -      ------
 72
   65
 73
    6
 40
1.27
 49
0.5
 49
-0.25
 49
0.01
 49
-0.25
 49
0.01
 49
-0.25
  0
LTYPE
  2
DIVIDE2
 70
   64
  3
------      -      -      ------
 72
   65
 73
    6
 40
0.645
 49
0.25
 49
-0.125
 49
0.01
 49
-0.125
 49
0.01
 49
-0.125
  0
LTYPE
  2
DIVIDEX2
 70
   64
  3
------      -      -      ------
 72
   65
 73
    6
 40
2.5199999999999996
 49
1
 49
-0.5
 49
0.01
 49
-0.5
 49
0.01
 49
-0.5
  0
LTYPE
  2
DOT_32
 70
   64
  3
-               -               
 72
   65
 73
    2
 40
0.26
 49
0.01
 49
-0.25
  0
ENDTAB
  0
TABLE
  2
STYLE
  5
3
100
AcDbSymbolTable
 70
     1
  0
STYLE
  5
10
100
AcDbSymbolTableRecord
100
AcDbTextStyleTableRecord
  2
STANDARD
 70
     0
 40
0.0
 41
1.0
 50
0.0
 71
     0
 42
0.2
  3
txt
  4
bigfont.shx
  0
STYLE
  5
26
100
AcDbSymbolTableRecord
100
AcDbTextStyleTableRecord
  2
TATEGAKI
 70
    68
 40
0.0
 41
1.0
 50
0.0
 71
     0
 42
1.0
  3
txt
  4
bigfont.shx
  0
ENDTAB
  0
TABLE
  2
LAYER
 70
    2
  0
LAYER
  2
_0-0_0
 70
   64
 62
    7
  6
CONTINUOUS
  0
LAYER
  2
ADD_LINE
 70
   64
 62
    7
  6
CONTINUOUS
  0
ENDTAB
  0
ENDSEC
  0
SECTION
  2
BLOCKS
  0
ENDSEC
  0
SECTION
  2
ENTITIES
  0
ARC
  8
_0-0_0
  6
CONTINUOUS
 62
    7
 10
220.12684365911088
 20
129.58081417370508
 40
14.487901000000001
 50
330.800815
 51
41.352236000000033
  0
ARC
  8
_0-0_0
  6
CONTINUOUS
 62
    7
 10
221.92935865911087
 20
126.43582217370508
 40
11.53213
 50
299.27266200000008
 51
32.074814000000046
  0
ARC
  8
_0-0_0
  6
CONTINUOUS
 62
    7
 10
210.63216165911089
 20
155.39255317370507
 40
25.345815999999999
 50
6.4772489999999996
 51
61.504125000000002
  0
ARC
  8
_0-0_0
  6
CONTINUOUS
 62
    7
 10
216.85130765911089
 20
154.89671117370506
 40
19.259366
 50
340.88020699999998
 51
30.249747000000024
  0
ARC
  8
_0-0_0
  6
CONTINUOUS
 62
    7
 10
211.01768665911089
 20
142.70263917370508
 40
24.740857999999999
 50
338.49600600000002
 51
30.21597499999999
  0
ARC
  8
_0-0_0
  6
CONTINUOUS
 62
    7
 10
-13.107421340889118
 20
-99.08259582629492
 40
336.90864299999998
 50
45.918440000000004
 51
48.88831900000001
  0
ARC
  8
_0-0_0
  6
CONTINUOUS
 62
    7
 10
-205.59287034088902
 20
-280.21216082629485
 40
591.21445300000005
 50
44.696129999999989
 51
46.687829999999998
  0
ARC
  8
_0-0_0
  6
CONTINUOUS
 62
    7
 10
464.22019065911087
 20
419.91393717370511
 40
378.65803199999999
 50
225.76773700000001
 51
229.514273
  0
ARC
  8
_0-0_0
  6
CONTINUOUS
 62
    7
 10
491.81589365911088
 20
-153.50578882629497
 40
413.50747100000001
 50
132.58264600000001
 51
133.79650699999999
  0
ARC
  8
_0-0_0
  6
CONTINUOUS
 62
    7
 10
137.25062865911087
 20
231.18058217370506
 40
115.458057
 50
308.69397900000001
 51
313.25741900000003
  0
LINE
  8
_0-0_0
  6
CONTINUOUS
 62
    7
 10
205.99437865911088
 20
144.37005817370508
 11
212.6141816591109
 21
150.75723017370507
  0
ARC
  8
_0-0_0
  6
CONTINUOUS
 62
    7
 10
202.14433665911088
 20
146.80703017370507
 40
18.266324999999998
 50
152.897186
 51
181.32538999999997
  0
ARC
  8
_0-0_0
  6
CONTINUOUS
 62
    7
 10
106.96035165911087
 20
32.43365217370507
 40
163.63188500000001
 50
40.706943999999993
 51
46.551503000000011
  0
ARC
  8
_0-0_0
  6
CONTINUOUS
 62
    7
 10
244.47205265911089
 20
185.32053217370506
 40
62.065856999999987
 50
206.92764299999999
 51
228.19218100000001
  0
ARC
  8
_0-0_0
  6
CONTINUOUS
 62
    7
 10
199.35058965911088
 20
148.43763217370508
 40
15.01749
 50
136.300127
 51
216.99572499999999
  0
ARC
  8
_0-0_0
  6
CONTINUOUS
 62
    7
 10
199.14365865911088
 20
147.31390817370507
 40
9.1960979999999992
 50
144.263103
 51
204.841171
  0
ARC
  8
_0-0_0
  6
CONTINUOUS
 62
    7
 10
216.3566166591109
 20
142.28153117370508
 40
14.636649
 50
348.955512
 51
29.253426999999981
  0
ARC
  8
_0-0_0
  6
CONTINUOUS
 62
    7
 10
149.77725865911088
 20
80.045242173705077
 40
100.378546
 50
36.590893999999999
 51
52.075319
  0
LINE
  8
_0-0_0
  6
CONTINUOUS
 62
    7
 10
224.9008806591109
 20
146.62071817370506
 11
228.15023865911087
 21
150.14244117370507
  0
ARC
  8
_0-0_0
  6
CONTINUOUS
 62
    7
 10
111.66822565911089
 20
239.12838417370506
 40
146.608936
 50
320.72705100000002
 51
322.81042200000002
  0
ARC
  8
_0-0_0
  6
CONTINUOUS
 62
    7
 10
249.32346865911086
 20
110.24236117370506
 40
68.921172999999996
 50
144.47052199999999
 51
149.201562
  0
ARC
  8
_0-0_0
  6
CONTINUOUS
 62
    7
 10
225.79635265911088
 20
129.01784817370506
 40
39.572429999999997
 50
146.42835500000001
 51
154.61574400000001
  0
ARC
  8
_0-0_0
  6
CONTINUOUS
 62
    7
 10
205.09641465911088
 20
146.96191117370506
 40
21.221374999999998
 50
181.559091
 51
214.96043800000001
  0
ARC
  8
_0-0_0
  6
CONTINUOUS
 62
    7
 10
208.8545906591109
 20
111.49010017370507
 40
16.310040000000001
 50
353.625586
 51
43.852113000000024
  0
ARC
  8
_0-0_0
  6
CONTINUOUS
 62
    7
 10
205.66353765911089
 20
107.47426517370506
 40
14.887962
 50
328.33003500000007
 51
47.387122000000076
  0
ARC
  8
_0-0_0
  6
CONTINUOUS
 62
    7
 10
198.54211465911089
 20
98.313431173705055
 40
20.974157999999999
 50
45.403959000000008
 51
65.514956000000026
  0
ARC
  8
_0-0_0
  6
CONTINUOUS
 62
    7
 10
210.61377465911087
 20
116.11281717370507
 40
16.956454000000001
 50
300.93234300000006
 51
42.619786000000026
  0
ARC
  8
_0-0_0
  6
CONTINUOUS
 62
    7
 10
211.93167565911088
 20
115.60044317370506
 40
9.548430999999999
 50
329.72926699999999
 51
44.347482999999997
  0
ARC
  8
_0-0_0
  6
CONTINUOUS
 62
    7
 10
171.37523865911089
 20
71.501328173705076
 40
51.336571999999997
 50
42.336438999999991
 51
62.111356999999991
  0
ARC
  8
_0-0_0
  6
CONTINUOUS
 62
    7
 10
183.7378966591109
 20
86.750082173705067
 40
36.898053000000012
 50
37.138751000000013
 51
54.731223999999997
  0
ARC
  8
_0-0_0
  6
CONTINUOUS
 62
    7
 10
201.64035665911089
 20
117.23009017370507
 40
11.320862999999999
 50
165.01138700000004
 51
238.55135100000004
  0
ARC
  8
_0-0_0
  6
CONTINUOUS
 62
    7
 10
202.16009565911088
 20
122.25577417370506
 40
11.574195
 50
190.90101400000003
 51
247.99687400000002
  0
ARC
  8
_0-0_0
  6
CONTINUOUS
 62
    7
 10
176.69887165911089
 20
77.295364173705053
 40
50.616919000000003
 50
43.729725999999992
 51
51.597324999999998
  0
LINE
  8
_0-0_0
  6
CONTINUOUS
 62
    7
 10
204.52457965911088
 20
83.504269173705069
 11
216.52457965911088
 21
83.504269173705069
  0
ARC
  8
_0-0_0
  6
CONTINUOUS
 62
    7
 10
188.66990965911089
 20
88.326340173705063
 40
19.966714
 50
5.3420370000000004
 51
40.932965000000003
  0
ARC
  8
_0-0_0
  6
CONTINUOUS
 62
    7
 10
187.76983665911089
 20
89.383658173705058
 40
24.796676999999999
 50
2.9637399999999996
 51
49.862730999999997
  0
LINE
  8
_0-0_0
  6
CONTINUOUS
 62
    7
 10
204.52457965911088
 20
83.504269173705069
 11
216.52457965911088
 21
83.504269173705069
  0
ARC
  8
_0-0_0
  6
CONTINUOUS
 62
    7
 10
185.45699165911088
 20
88.776022173705073
 40
19.149217
 50
359.39015599999999
 51
30.843638000000006
  0
LINE
  8
_0-0_0
  6
CONTINUOUS
 62
    7
 10
208.52457965911088
 20
83.504269173705069
 11
208.5499026591109
 21
90.185263173705081
  0
LINE
  8
_0-0_0
  6
CONTINUOUS
 62
    7
 10
204.52457965911088
 20
83.504269173705069
 11
204.60512765911088
 21
88.572202173705051
  0
ARC
  8
_0-0_0
  6
CONTINUOUS
 62
    7
 10
180.48845265911089
 20
79.435751173705086
 40
32.001265999999987
 50
43.362115000000003
 51
61.549416000000008
  0
ARC
  8
_0-0_0
  6
CONTINUOUS
 62
    7
 10
177.64724765911089
 20
82.266019173705075
 40
29.235095000000001
 50
33.951999999999998
 51
53.638356999999992
  0
ARC
  8
_0-0_0
  6
CONTINUOUS
 62
    7
 10
199.74883165911089
 20
111.20990917370507
 40
7.2050349999999996
 50
186.174114
 51
228.55857900000001
  0
ARC
  8
_0-0_0
  6
CONTINUOUS
 62
    7
 10
177.72991365911088
 20
66.980270173705065
 40
48.866757
 50
57.821547000000002
 51
65.719991000000007
  0
ARC
  8
_0-0_0
  6
CONTINUOUS
 62
    7
 10
198.73032265911087
 20
97.37131717370508
 40
13.710502999999999
 50
356.64466599999992
 51
39.409917999999969
  0
ARC
  8
_0-0_0
  6
CONTINUOUS
 62
    7
 10
143.36765765911088
 20
93.222617173705061
 40
73.341541000000007
 50
357.38494900000001
 51
4.5493769999999989
  0
ARC
  8
_0-0_0
  6
CONTINUOUS
 62
    7
 10
241.49115065911087
 20
89.570255173705078
 40
25.258424000000002
 50
156.46122
 51
168.965889
  0
LINE
  8
_0-0_0
  6
CONTINUOUS
 62
    7
 10
212.41732165911088
 20
96.568863173705068
 11
212.52457965911088
 21
83.504269173705069
  0
LINE
  8
_0-0_0
  6
CONTINUOUS
 62
    7
 10
216.52457965911088
 20
83.504269173705069
 11
216.63281265911087
 21
89.876376173705083
  0
LINE
  8
_0-0_0
  6
CONTINUOUS
 62
    7
 10
216.52457965911088
 20
83.504269173705069
 11
216.63281265911087
 21
89.876376173705083
  0
ARC
  8
_0-0_0
  6
CONTINUOUS
 62
    7
 10
198.71752065911087
 20
98.672684173705079
 40
17.764389000000001
 50
1.1845870000000001
 51
35.653321000000012
  0
ARC
  8
_0-0_0
  6
CONTINUOUS
 62
    7
 10
195.66105965911089
 20
101.36669017370505
 40
20.72334
 50
358.00909200000007
 51
31.792553000000034
  0
ARC
  8
_0-0_0
  6
CONTINUOUS
 62
    7
 10
208.59937765911087
 20
107.67302317370508
 40
7.2721739999999997
 50
350.00427400000001
 51
50.058470000000007
  0
ARC
  8
_0-0_0
  6
CONTINUOUS
 62
    7
 10
213.67310865911088
 20
111.28700617370507
 40
11.503584999999999
 50
319.01231799999999
 51
351.96609599999999
  0
ARC
  8
_0-0_0
  6
CONTINUOUS
 62
    7
 10
513.693188659111
 20
450.93666717370502
 40
440.15756799999991
 50
225.11806300000001
 51
227.28047300000003
  0
ARC
  8
_0-0_0
  6
CONTINUOUS
 62
    7
 10
199.65307065911088
 20
95.466116173705075
 40
28.040697999999999
 50
54.983158999999979
 51
72.249673000000001
  0
ARC
  8
_0-0_0
  6
CONTINUOUS
 62
    7
 10
194.98222965911089
 20
101.58706117370508
 40
27.097494999999999
 50
31.436048
 51
61.640128000000004
  0
LINE
  8
_0-0_0
  6
CONTINUOUS
 62
    7
 10
205.34498365911088
 20
127.01057117370507
 11
210.48427765911089
 21
131.68852417370508
  0
ARC
  8
_0-0_0
  6
CONTINUOUS
 62
    7
 10
111.66822565911089
 20
239.12838417370506
 40
146.608936
 50
309.93614400000001
 51
312.60215799999997
  0
ARC
  8
_0-0_0
  6
CONTINUOUS
 62
    7
 10
225.33930065911088
 20
156.01099217370506
 40
35.224947999999998
 50
223.00017099999999
 51
240.238134
  0
ARC
  8
_0-0_0
  6
CONTINUOUS
 62
    7
 10
244.56698065911087
 20
178.96413017370509
 40
71.997582999999992
 50
217.83471800000001
 51
238.76713000000001
  0
ARC
  8
_0-0_0
  6
CONTINUOUS
 62
    7
 10
193.64407365911089
 20
131.22107417370506
 40
7.6314859999999989
 50
172.97060699999997
 51
254.85837299999997
  0
ARC
  8
_0-0_0
  6
CONTINUOUS
 62
    7
 10
199.07591865911087
 20
133.10245817370506
 40
8.4528660000000002
 50
194.58043700000002
 51
231.21496300000004
  0
ARC
  8
_0-0_0
  6
CONTINUOUS
 62
    7
 10
221.08098065911088
 20
160.40863717370507
 40
39.732562000000001
 50
211.91978800000004
 51
239.26740100000004
  0
ARC
  8
_0-0_0
  6
CONTINUOUS
 62
    7
 10
136.98272165911089
 20
2.6067841737050799
 40
133.00224600000001
 50
59.221203000000003
 51
65.730428000000003
  0
ARC
  8
_0-0_0
  6
CONTINUOUS
 62
    7
 10
216.46503165911088
 20
152.28526917370507
 40
34.332943999999998
 50
228.64623800000001
 51
239.26794699999999
  0
ARC
  8
_0-0_0
  6
CONTINUOUS
 62
    7
 10
201.89823665911089
 20
131.14708417370508
 40
15.686195
 50
187.460812
 51
245.47945799999999
  0
LINE
  8
_0-0_0
  6
CONTINUOUS
 62
    7
 10
198.92007465911087
 20
122.77382717370507
 11
201.64303665911089
 21
121.22637017370508
  0
ARC
  8
_0-0_0
  6
CONTINUOUS
 62
    7
 10
226.89344465911088
 20
164.94782917370506
 40
46.681426999999992
 50
235.98055000000002
 51
246.39631500000002
  0
ARC
  8
_0-0_0
  6
CONTINUOUS
 62
    7
 10
224.23977165911089
 20
159.96864217370506
 40
37.298394999999999
 50
206.28665700000002
 51
228.60730600000002
  0
ARC
  8
_0-0_0
  6
CONTINUOUS
 62
    7
 10
221.17871565911088
 20
131.55904517370507
 40
28.872713999999998
 50
149.53991600000001
 51
164.8214669999999
  0
ARC
  8
_0-0_0
  6
CONTINUOUS
 62
    7
 10
209.37333665911089
 20
131.53333317370507
 40
23.311678000000001
 50
167.58247499999996
 51
178.4718729999999
  0
ARC
  8
_0-0_0
  6
CONTINUOUS
 62
    7
 10
257.57449865911087
 20
93.281827173705068
 40
72.042737000000002
 50
139.93399199999999
 51
145.97794500000001
  0
ARC
  8
_0-0_0
  6
CONTINUOUS
 62
    7
 10
248.65421665911089
 20
100.76134617370508
 40
61.301470999999999
 50
139.873805
 51
146.943884
  0
ARC
  8
_0-0_0
  6
CONTINUOUS
 62
    7
 10
233.1337466591109
 20
110.57437117370506
 40
37.768002000000003
 50
136.63292100000001
 51
148.15788200000003
  0
ARC
  8
_0-0_0
  6
CONTINUOUS
 62
    7
 10
334.55072065911088
 20
232.20590517370508
 40
159.66323199999999
 50
218.68678399999999
 51
223.51291399999999
  0
ARC
  8
_0-0_0
  6
CONTINUOUS
 62
    7
 10
240.0620606591109
 20
150.84715517370506
 40
28.786923000000002
 50
221.11169200000001
 51
233.87657799999999
  0
ARC
  8
_0-0_0
  6
CONTINUOUS
 62
    7
 10
219.43812865911087
 20
129.17441117370507
 40
9.2581059999999997
 50
316.75707199999999
 51
15.693668000000029
  0
ARC
  8
_0-0_0
  6
CONTINUOUS
 62
    7
 10
358.8535526591109
 20
1.482333173705058
 40
187.12580600000001
 50
134.64193499999999
 51
137.15872300000001
  0
ARC
  8
_0-0_0
  6
CONTINUOUS
 62
    7
 10
358.8535526591109
 20
1.482333173705058
 40
187.12580600000001
 50
139.14020099999999
 51
140.51846499999999
  0
ARC
  8
_0-0_0
  6
CONTINUOUS
 62
    7
 10
795.33642565911077
 20
-388.08237582629499
 40
766.58749999999986
 50
138.55378899999999
 51
138.88062700000003
  0
ARC
  8
_0-0_0
  6
CONTINUOUS
 62
    7
 10
283.12749065911089
 20
200.84894717370508
 40
100.00451700000001
 50
227.12620700000002
 51
231.31162399999999
  0
ARC
  8
_0-0_0
  6
CONTINUOUS
 62
    7
 10
154.10271665911085
 20
200.82707217370506
 40
94.527686000000003
 50
313.0005220000001
 51
318.80115599999999
  0
ARC
  8
_0-0_0
  6
CONTINUOUS
 62
    7
 10
207.21020865911089
 20
126.24065117370507
 40
21.829101999999999
 50
14.425325000000003
 51
49.890140000000009
  0
ARC
  8
_0-0_0
  6
CONTINUOUS
 62
    7
 10
111.66822565911089
 20
239.12838417370506
 40
146.608936
 50
314.807817
 51
318.74449299999998
  0
LINE
  8
_0-0_0
  6
CONTINUOUS
 62
    7
 10
214.61295665911089
 20
135.47044817370508
 11
221.43236565911087
 21
142.86146817370508
  0
ARC
  8
_0-0_0
  6
CONTINUOUS
 62
    7
 10
179.75112965911089
 20
90.652963173705075
 40
66.745642000000004
 50
38.892197000000003
 51
50.412021000000003
  0
ARC
  8
_0-0_0
  6
CONTINUOUS
 62
    7
 10
154.10271665911085
 20
200.82707217370506
 40
94.527686000000003
 50
321.83660099999997
 51
324.08682099999999
  0
LINE
  8
_0-0_0
  6
CONTINUOUS
 62
    7
 10
216.52457965911088
 20
213.50426917370507
 11
216.52457965911088
 21
205.62825017370506
  0
LINE
  8
_0-0_0
  6
CONTINUOUS
 62
    7
 10
212.52457965911088
 20
213.50426917370507
 11
212.52457965911088
 21
205.62825017370506
  0
LINE
  8
_0-0_0
  6
CONTINUOUS
 62
    7
 10
208.52457965911088
 20
213.50426917370507
 11
208.52457965911088
 21
205.62825017370506
  0
LINE
  8
_0-0_0
  6
CONTINUOUS
 62
    7
 10
204.52457965911088
 20
213.50426917370507
 11
204.52457965911088
 21
205.62825017370506
  0
LINE
  8
_0-0_0
  6
CONTINUOUS
 62
    7
 10
208.30325665911087
 20
179.11982117370508
 11
210.63211365911087
 21
182.67398717370509
  0
ARC
  8
_0-0_0
  6
CONTINUOUS
 62
    7
 10
234.27383265911089
 20
195.60322917370507
 40
21.332308999999999
 50
201.05918600000004
 51
237.22104899999999
  0
ARC
  8
_0-0_0
  6
CONTINUOUS
 62
    7
 10
230.86322865911089
 20
194.09254817370507
 40
21.569749000000002
 50
189.112324
 51
222.18577999999999
  0
ARC
  8
_0-0_0
  6
CONTINUOUS
 62
    7
 10
237.42082365911088
 20
193.86138617370506
 40
28.887761999999999
 50
186.3230659999999
 51
220.64824999999999
  0
ARC
  8
_0-0_0
  6
CONTINUOUS
 62
    7
 10
223.73842865911089
 20
197.51419417370508
 40
25.906039
 50
195.79630599999999
 51
230.00662
  0
ARC
  8
_0-0_0
  6
CONTINUOUS
 62
    7
 10
311.1457466591109
 20
276.18598317370504
 40
141.465259
 50
221.1833
 51
231.60294500000001
  0
ARC
  8
_0-0_0
  6
CONTINUOUS
 62
    7
 10
253.07258165911088
 20
221.44690317370507
 40
67.525268999999994
 50
217.00954900000002
 51
234.50274300000001
  0
ARC
  8
_0-0_0
  6
CONTINUOUS
 62
    7
 10
210.85265065911088
 20
177.89924617370508
 40
18.712969999999999
 50
174.63553300000001
 51
222.047988
  0
ARC
  8
_0-0_0
  6
CONTINUOUS
 62
    7
 10
214.5385566591109
 20
185.63557717370509
 40
21.649252000000001
 50
193.78664599999999
 51
224.287102
  0
ARC
  8
_0-0_0
  6
CONTINUOUS
 62
    7
 10
203.91380965911088
 20
178.75058317370508
 40
6.4032770000000001
 50
148.634219
 51
191.98956899999999
  0
ARC
  8
_0-0_0
  6
CONTINUOUS
 62
    7
 10
240.45946665911089
 20
206.58923017370506
 40
37.179022000000003
 50
226.52878399999997
 51
242.79920899999996
  0
ARC
  8
_0-0_0
  6
CONTINUOUS
 62
    7
 10
206.35517965911089
 20
161.50648817370507
 40
25.794070000000001
 50
23.192553
 51
51.879484000000012
  0
ARC
  8
_0-0_0
  6
CONTINUOUS
 62
    7
 10
213.4574936591109
 20
170.25714717370508
 40
17.992087000000001
 50
358.72672599999999
 51
42.834657000000021
  0
ARC
  8
_0-0_0
  6
CONTINUOUS
 62
    7
 10
315.05643965911088
 20
273.02527817370509
 40
154.81328099999999
 50
221.46245000000002
 51
231.880852
  0
ARC
  8
_0-0_0
  6
CONTINUOUS
 62
    7
 10
262.14350665911093
 20
217.67468017370504
 40
77.355231000000003
 50
217.22590199999999
 51
229.07701799999998
  0
ARC
  8
_0-0_0
  6
CONTINUOUS
 62
    7
 10
255.34841665911088
 20
225.02101717370508
 40
67.612127999999998
 50
224.45718700000003
 51
238.27869000000004
  0
ARC
  8
_0-0_0
  6
CONTINUOUS
 62
    7
 10
124.52844265911088
 20
246.52544317370507
 40
116.056055
 50
314.78792800000008
 51
317.97762600000004
  0
ARC
  8
_0-0_0
  6
CONTINUOUS
 62
    7
 10
-4.8979243408891193
 20
369.22262917370506
 40
293.47187500000001
 50
315.84988600000003
 51
317.08858199999997
  0
ARC
  8
_0-0_0
  6
CONTINUOUS
 62
    7
 10
208.75125465911088
 20
166.01359017370507
 40
21.499527
 50
177.11052100000001
 51
204.16305599999998
  0
ARC
  8
_0-0_0
  6
CONTINUOUS
 62
    7
 10
229.47468865911088
 20
177.47558317370508
 40
40.340356
 50
200.01971300000002
 51
222.98457100000002
  0
ARC
  8
_0-0_0
  6
CONTINUOUS
 62
    7
 10
200.25995565911089
 20
167.63199317370507
 40
12.786115000000001
 50
168.47751700000001
 51
210.23146
  0
ARC
  8
_0-0_0
  6
CONTINUOUS
 62
    7
 10
301.87952865911086
 20
267.2066741737051
 40
146.21998300000001
 50
224.14592200000001
 51
230.269856
  0
ARC
  8
_0-0_0
  6
CONTINUOUS
 62
    7
 10
426.43065265911088
 20
-54.54284982629494
 40
315.313379
 50
136.23196200000001
 51
136.41220999999999
  0
ARC
  8
_0-0_0
  6
CONTINUOUS
 62
    7
 10
323.22624565911087
 20
39.638059173705074
 40
180.01745600000001
 50
135.063098
 51
136.84185600000004
  0
LINE
  8
_0-0_0
  6
CONTINUOUS
 62
    7
 10
198.5139926591109
 20
157.68228317370506
 11
195.93214165911087
 21
155.21474817370506
  0
LINE
  8
_0-0_0
  6
CONTINUOUS
 62
    7
 10
199.8814726591109
 20
158.25920917370507
 11
196.12497865911087
 21
154.79351317370507
  0
ARC
  8
_0-0_0
  6
CONTINUOUS
 62
    7
 10
230.93630365911088
 20
186.20722717370506
 40
48.646701
 50
210.94240099999999
 51
230.6327299999999
  0
ARC
  8
_0-0_0
  6
CONTINUOUS
 62
    7
 10
235.19251165911089
 20
132.12560917370507
 40
48.211502000000003
 50
140.40315799999999
 51
147.974109
  0
ARC
  8
_0-0_0
  6
CONTINUOUS
 62
    7
 10
258.97161165911086
 20
101.69752817370505
 40
77.163269
 50
134.22933599999999
 51
140.420152
  0
ARC
  8
_0-0_0
  6
CONTINUOUS
 62
    7
 10
124.52844265911088
 20
246.52544317370507
 40
116.056055
 50
310.48745000000008
 51
311.98681300000004
  0
ARC
  8
_0-0_0
  6
CONTINUOUS
 62
    7
 10
-4.8979243408891193
 20
369.22262917370506
 40
293.47187500000001
 50
313.87779200000006
 51
314.73345000000006
  0
ARC
  8
_0-0_0
  6
CONTINUOUS
 62
    7
 10
197.6077426591109
 20
167.16178117370507
 40
10.328881000000001
 50
121.32496399999999
 51
180.357292
  0
ARC
  8
_0-0_0
  6
CONTINUOUS
 62
    7
 10
199.17738365911089
 20
165.70338617370507
 40
7.8738159999999997
 50
136.92330000000004
 51
195.00124500000004
  0
ARC
  8
_0-0_0
  6
CONTINUOUS
 62
    7
 10
200.76524065911087
 20
164.00601417370507
 40
9.6676520000000004
 50
137.43343300000001
 51
169.791167
  0
LINE
  8
_0-0_0
  6
CONTINUOUS
 62
    7
 10
201.74214465911089
 20
172.48344417370507
 11
200.39701265911089
 21
171.20850717370507
  0
ARC
  8
_0-0_0
  6
CONTINUOUS
 62
    7
 10
210.87610165911087
 20
179.36683017370507
 40
13.368344
 50
188.37198599999999
 51
219.42003200000002
  0
ARC
  8
_0-0_0
  6
CONTINUOUS
 62
    7
 10
426.43065265911088
 20
-54.54284982629494
 40
315.313379
 50
134.07482400000004
 51
135.13627600000004
  0
ARC
  8
_0-0_0
  6
CONTINUOUS
 62
    7
 10
175.94096665911087
 20
202.28877317370507
 40
39.421551999999998
 50
310.88130600000011
 51
315.84338300000002
  0
ARC
  8
_0-0_0
  6
CONTINUOUS
 62
    7
 10
189.16212765911089
 20
189.38844017370508
 40
18.783023
 50
301.36433899999997
 51
316.33900899999998
  0
ARC
  8
_0-0_0
  6
CONTINUOUS
 62
    7
 10
176.72432865911088
 20
117.84416217370507
 40
61.187592000000002
 50
31.083030000000004
 51
52.62957500000001
  0
ARC
  8
_0-0_0
  6
CONTINUOUS
 62
    7
 10
200.05562465911089
 20
134.77688517370507
 40
38.225493999999998
 50
32.213107999999998
 51
58.902793000000003
  0
ARC
  8
_0-0_0
  6
CONTINUOUS
 62
    7
 10
207.62739865911087
 20
147.54192717370506
 40
26.190082
 50
14.448053
 51
48.153011000000006
  0
ARC
  8
_0-0_0
  6
CONTINUOUS
 62
    7
 10
124.92103265911088
 20
240.67982517370507
 40
116.66373299999999
 50
316.70917800000001
 51
320.175117
  0
ARC
  8
_0-0_0
  6
CONTINUOUS
 62
    7
 10
190.68932265911087
 20
181.42005317370507
 40
42.936095999999992
 50
314.68823500000002
 51
322.90211099999999
  0
ARC
  8
_0-0_0
  6
CONTINUOUS
 62
    7
 10
168.3850286591109
 20
197.30658917370508
 40
65.023437999999999
 50
318.69138100000004
 51
324.61659800000007
  0
ARC
  8
_0-0_0
  6
CONTINUOUS
 62
    7
 10
165.20512165911089
 20
202.61925417370509
 40
70.404748999999995
 50
317.15762100000001
 51
322.643574
  0
ARC
  8
_0-0_0
  6
CONTINUOUS
 62
    7
 10
246.00882365911087
 20
201.91808217370505
 40
40.655225000000002
 50
221.37894400000002
 51
239.04948999999999
  0
LINE
  8
_0-0_0
  6
CONTINUOUS
 62
    7
 10
217.69284965911089
 20
169.97112917370507
 11
218.82019365911088
 21
171.44545117370507
  0
ARC
  8
_0-0_0
  6
CONTINUOUS
 62
    7
 10
124.52844265911088
 20
246.52544317370507
 40
116.056055
 50
320.70549499999998
 51
321.83493499999997
  0
LINE
  8
_0-0_0
  6
CONTINUOUS
 62
    7
 10
213.93997965911089
 20
173.43315117370508
 11
215.2304916591109
 21
175.03910817370507
  0
ARC
  8
_0-0_0
  6
CONTINUOUS
 62
    7
 10
149.07515865911088
 20
220.51933317370506
 40
75.716607999999994
 50
324.50190499999997
 51
326.93145800000002
  0
ARC
  8
_0-0_0
  6
CONTINUOUS
 62
    7
 10
205.67718865911087
 20
143.44824817370508
 40
34.940106
 50
37.253546000000007
 51
59.39733300000001
  0
ARC
  8
_0-0_0
  6
CONTINUOUS
 62
    7
 10
252.48676965911091
 20
201.17731617370504
 40
44.186931999999992
 50
174.21880999999999
 51
193.74756400000001
  0
ARC
  8
_0-0_0
  6
CONTINUOUS
 62
    7
 10
192.81262865911089
 20
206.70076017370508
 40
15.748511000000001
 50
317.156474
 51
356.09500000000003
  0
ARC
  8
_0-0_0
  6
CONTINUOUS
 62
    7
 10
190.16618665911091
 20
192.25789217370505
 40
18.569106000000001
 50
326.34335099999998
 51
355.70294699999999
  0
ARC
  8
_0-0_0
  6
CONTINUOUS
 62
    7
 10
211.6901446591109
 20
188.52376717370504
 40
14.726736000000001
 50
138.94105999999999
 51
211.63184000000001
  0
ARC
  8
_0-0_0
  6
CONTINUOUS
 62
    7
 10
207.10411065911089
 20
192.63002317370507
 40
8.5720639999999992
 50
139.55324999999999
 51
194.649518
  0
ARC
  8
_0-0_0
  6
CONTINUOUS
 62
    7
 10
264.1321936591109
 20
198.40380617370508
 40
55.959026999999992
 50
175.88805400000001
 51
187.93380199999999
  0
ARC
  8
_0-0_0
  6
CONTINUOUS
 62
    7
 10
183.82576965911088
 20
203.04047617370506
 40
24.964521999999999
 50
320.89403499999997
 51
347.30124000000001
  0
ARC
  8
_0-0_0
  6
CONTINUOUS
 62
    7
 10
205.16470065911088
 20
178.03478717370507
 40
13.043297000000001
 50
128.93714200000002
 51
172.89211400000002
  0
ARC
  8
_0-0_0
  6
CONTINUOUS
 62
    7
 10
199.73177265911087
 20
181.92631217370507
 40
6.3855370000000002
 50
151.49252999999999
 51
193.12409099999991
  0
ARC
  8
_0-0_0
  6
CONTINUOUS
 62
    7
 10
217.35691565911088
 20
189.82903817370504
 40
14.384315000000001
 50
154.63165799999999
 51
208.18363300000013
  0
ARC
  8
_0-0_0
  6
CONTINUOUS
 62
    7
 10
188.63524165911087
 20
209.28996917370506
 40
16.305803999999998
 50
317.10385400000007
 51
347.02267800000004
  0
ARC
  8
_0-0_0
  6
CONTINUOUS
 62
    7
 10
273.31173165911088
 20
203.01567717370509
 40
60.843268000000002
 50
177.53899200000001
 51
194.34821099999999
  0
ARC
  8
_0-0_0
  6
CONTINUOUS
 62
    7
 10
259.34940565911091
 20
206.11484717370507
 40
46.827350000000003
 50
180.595393
 51
200.659469
  0
ARC
  8
_0-0_0
  6
CONTINUOUS
 62
    7
 10
258.16093965911091
 20
207.16932717370508
 40
41.664867999999998
 50
182.11971299999999
 51
198.80683500000001
  0
ARC
  8
_0-0_0
  6
CONTINUOUS
 62
    7
 10
246.32363465911089
 20
204.78071617370509
 40
29.730205999999999
 50
201.805015
 51
228.57105100000001
  0
ARC
  8
_0-0_0
  6
CONTINUOUS
 62
    7
 10
240.63387865911088
 20
204.49866617370506
 40
29.192458999999999
 50
210.702539
 51
231.04000100000002
  0
LINE
  8
_0-0_0
  6
CONTINUOUS
 62
    7
 10
204.52457965911088
 20
213.50426917370507
 11
216.52457965911088
 21
213.50426917370507
  0
ENDSEC
  0
EOF
