  0
SECTION
  2
HEADER
  9
$ACADVER
  1
AC1009
  9
$INSBASE
 10
0
 20
0
 30
0
  9
$EXTMIN
 10
0
 20
0
  9
$EXTMAX
 10
420
 20
297
  9
$LIMMIN
 10
0
 20
0
  9
$LIMMAX
 10
420
 20
297
  9
$LTSCALE
 40
1
  0
ENDSEC
  0
SECTION
  2
TABLES
  0
TABLE
  2
LTYPE
 70
     9
  0
LTYPE
  2
CONTINUOUS
 70
    64
  3
実線
 72
    65
 73
     0
 40
0.0
  0
LTYPE
  2
DASHED1
 70
    64
  3
--  --  --  --  --  --  --  --  
 72
    65
 73
     2
 40
2.5
 49
1.25
 49
-1.25
  0
LTYPE
  2
DASHED2
 70
    64
  3
----    ----    ----    ----    
 72
    65
 73
     2
 40
5.0
 49
2.5
 49
-2.5
  0
LTYPE
  2
DASHED3
 70
    64
  3
------  ------  ------  ------  
 72
    65
 73
     2
 40
5.0
 49
3.75
 49
-1.25
  0
LTYPE
  2
CENTER1
 70
    64
  3
----- - ----- - ----- - ----- - 
 72
    65
 73
     4
 40
10.0
 49
6.25
 49
-1.25
 49
1.25
 49
-1.25
  0
LTYPE
  2
CENTER2
 70
    64
  3
----------  --  ----------  --  
 72
    65
 73
     4
 40
20.0
 49
12.5
 49
-2.5
 49
2.5
 49
-2.5
  0
LTYPE
  2
PHANTOM1
 70
    64
  3
--- - - --- - - --- - - --- - - 
 72
    65
 73
     6
 40
10.0
 49
3.25
 49
-1.25
 49
1.25
 49
-1.25
 49
1.25
 49
-1.25
  0
LTYPE
  2
PHANTOM2
 70
    64
  3
--------  -  -  --------  -  -  
 72
    65
 73
     6
 40
20.0
 49
10.0
 49
-2.5
 49
1.25
 49
-2.5
 49
1.25
 49
-2.5
  0
LTYPE
  2
DOT
 70
    64
  3
-   -   -   -   -   -   -   -   
 72
    65
 73
     2
 40
2.5
 49
0.625
 49
-1.875
  0
LTYPE
  2
DUMMY
 70
    64
  3
ダミー
 72
    65
 73
     0
 40
0.0
  0
LTYPE
  2
RAND1
 70
    64
  3
ランダム線1
 72
    65
 73
     4
 40
10.0
 49
1.0
 49
-2.0
 49
3.0
 49
-4.0
  0
LTYPE
  2
RAND2
 70
    64
  3
ランダム線2
 72
    65
 73
     4
 40
14.0
 49
2.0
 49
-3.0
 49
4.0
 49
-5.0
  0
LTYPE
  2
RAND3
 70
    64
  3
ランダム線3
 72
    65
 73
     4
 40
18.0
 49
3.0
 49
-4.0
 49
5.0
 49
-6.0
  0
LTYPE
  2
RAND4
 70
    64
  3
ランダム線4
 72
    65
 73
     4
 40
22.0
 49
4.0
 49
-5.0
 49
6.0
 49
-7.0
  0
LTYPE
  2
RAND5
 70
    64
  3
ランダム線5
 72
    65
 73
     4
 40
26.0
 49
5.0
 49
-6.0
 49
7.0
 49
-8.0
  0
LTYPE
  2
LONG1
 70
    64
  3
----------  --  ----------  --  
 72
    65
 73
     4
 40
40.0
 49
32.5
 49
-2.5
 49
2.5
 49
-2.5
  0
LTYPE
  2
LONG2
 70
    64
  3
--------  -  -  --------  -  -  
 72
    65
 73
     6
 40
40.0
 49
30.0
 49
-2.5
 49
1.25
 49
-2.5
 49
1.25
 49
-2.5
  0
LTYPE
  2
LONG3
 70
    64
  3
+++++++++++++++..+++++++++++++++
 72
    65
 73
     2
 40
40.0
 49
37.5
 49
-2.5
  0
LTYPE
  2
LONG4
 70
    64
  3
+++++++++++++++..+++++++++++++++
 72
    65
 73
     2
 40
80.0
 49
75.0
 49
-5.0
  0
LTYPE
  2
LONG5
 70
    64
  3
----------  --  ----------  --  
 72
    65
 73
     4
 40
60.0
 49
37.5
 49
-7.5
 49
7.5
 49
-7.5
  0
LTYPE
  2
dashed
 70
   64
  3
-------   -------------   ------
 72
   65
 73
    2
 40
7.5
 49
6
 49
-1.5
  0
LTYPE
  2
dashed_spaced
 70
   64
  3
----        --------        ----
 72
   65
 73
    2
 40
12
 49
6
 49
-6
  0
LTYPE
  2
long_dashed_dotted
 70
   64
  3
------------- --- --------------
 72
   65
 73
    4
 40
15.25
 49
12
 49
-1.5
 49
0.25
 49
-1.5
  0
LTYPE
  2
long_dashed_double-dotted
 70
   64
  3
----------- --- --- ------------
 72
   65
 73
    6
 40
17
 49
12
 49
-1.5
 49
0.25
 49
-1.5
 49
0.25
 49
-1.5
  0
LTYPE
  2
long_dashed_triplicate-dotted
 70
   64
  3
--------- --- --- --- ----------
 72
   65
 73
    8
 40
18.75
 49
12
 49
-1.5
 49
0.25
 49
-1.5
 49
0.25
 49
-1.5
 49
0.25
 49
-1.5
  0
LTYPE
  2
dotted
 70
   64
  3
   -       -       -       -    
 72
   65
 73
    2
 40
1.75
 49
0.25
 49
-1.5
  0
LTYPE
  2
chain
 70
   64
  3
-------------- -- --------------
 72
   65
 73
    4
 40
18.5
 49
12
 49
-1.5
 49
3.5
 49
-1.5
  0
LTYPE
  2
chain_double_dash
 70
   64
  3
------------ -- -- -------------
 72
   65
 73
    6
 40
23.5
 49
12
 49
-1.5
 49
3.5
 49
-1.5
 49
3.5
 49
-1.5
  0
LTYPE
  2
dashed_dotted
 70
   64
  3
-----------     -     ----------
 72
   65
 73
    4
 40
9.25
 49
6
 49
-1.5
 49
0.25
 49
-1.5
  0
LTYPE
  2
double-dashed_dotted
 70
   64
  3
------   -----------   -   -----
 72
   65
 73
    6
 40
16.75
 49
6
 49
-1.5
 49
6
 49
-1.5
 49
0.25
 49
-1.5
  0
LTYPE
  2
dashed_double-dotted
 70
   64
  3
---------    -    -    ---------
 72
   65
 73
    6
 40
11
 49
6
 49
-1.5
 49
0.25
 49
-1.5
 49
0.25
 49
-1.5
  0
LTYPE
  2
double-dashed_double-dotted
 70
   64
  3
-----   ---------   -   -   ----
 72
   65
 73
    8
 40
18.5
 49
6
 49
-1.5
 49
6
 49
-1.5
 49
0.25
 49
-1.5
 49
0.25
 49
-1.5
  0
LTYPE
  2
dashed_triplicate-dotted
 70
   64
  3
-------    -    -    -    ------
 72
   65
 73
    8
 40
12.75
 49
6
 49
-1.5
 49
0.25
 49
-1.5
 49
0.25
 49
-1.5
 49
0.25
 49
-1.5
  0
LTYPE
  2
double-dashed_triplicate-dotted
 70
   64
  3
-----  ---------  -  -  -  -----
 72
   65
 73
   10
 40
20.25
 49
6
 49
-1.5
 49
6
 49
-1.5
 49
0.25
 49
-1.5
 49
0.25
 49
-1.5
 49
0.25
 49
-1.5
  0
LTYPE
  2
undefined
 70
   64
  3
--------------------------------
 72
   65
 73
    0
 40
0
  0
LTYPE
  2
BORDER
 70
   64
  3
----     --------     -     ----
 72
   65
 73
    6
 40
1.76
 49
0.5
 49
-0.25
 49
0.5
 49
-0.25
 49
0.01
 49
-0.25
  0
LTYPE
  2
BORDER2
 70
   64
  3
----     --------     -     ----
 72
   65
 73
    6
 40
0.885
 49
0.25
 49
-0.125
 49
0.25
 49
-0.125
 49
0.01
 49
-0.125
  0
LTYPE
  2
BORDERX2
 70
   64
  3
----     --------     -     ----
 72
   65
 73
    6
 40
3.5099999999999998
 49
1
 49
-0.5
 49
1
 49
-0.5
 49
0.01
 49
-0.5
  0
LTYPE
  2
CENTER
 70
   64
  3
----------    ----    ----------
 72
   65
 73
    4
 40
2
 49
1.25
 49
-0.25
 49
0.25
 49
-0.25
  0
LTYPE
  2
CENTER2_21
 70
   64
  3
----------    ----    ----------
 72
   65
 73
    4
 40
1.125
 49
0.75
 49
-0.125
 49
0.125
 49
-0.125
  0
LTYPE
  2
CENTERX2
 70
   64
  3
----------    ----    ----------
 72
   65
 73
    4
 40
4
 49
2.5
 49
-0.5
 49
0.5
 49
-0.5
  0
LTYPE
  2
DASHDOT
 70
   64
  3
--------        -        -------
 72
   65
 73
    4
 40
1.01
 49
0.5
 49
-0.25
 49
0.01
 49
-0.25
  0
LTYPE
  2
DASHDOT2
 70
   64
  3
--------        -        -------
 72
   65
 73
    4
 40
0.51
 49
0.25
 49
-0.125
 49
0.01
 49
-0.125
  0
LTYPE
  2
DASHDOTX2
 70
   64
  3
--------        -        -------
 72
   65
 73
    4
 40
2.0099999999999998
 49
1
 49
-0.5
 49
0.01
 49
-0.5
  0
LTYPE
  2
DASHED
 70
   64
  3
------     -----------     -----
 72
   65
 73
    2
 40
0.75
 49
0.5
 49
-0.25
  0
LTYPE
  2
DASHED2_27
 70
   64
  3
------     -----------     -----
 72
   65
 73
    2
 40
0.375
 49
0.25
 49
-0.125
  0
LTYPE
  2
DASHEDX2
 70
   64
  3
------     -----------     -----
 72
   65
 73
    2
 40
1.5
 49
1
 49
-0.5
  0
LTYPE
  2
DIVIDE
 70
   64
  3
------      -      -      ------
 72
   65
 73
    6
 40
1.27
 49
0.5
 49
-0.25
 49
0.01
 49
-0.25
 49
0.01
 49
-0.25
  0
LTYPE
  2
DIVIDE2
 70
   64
  3
------      -      -      ------
 72
   65
 73
    6
 40
0.645
 49
0.25
 49
-0.125
 49
0.01
 49
-0.125
 49
0.01
 49
-0.125
  0
LTYPE
  2
DIVIDEX2
 70
   64
  3
------      -      -      ------
 72
   65
 73
    6
 40
2.5199999999999996
 49
1
 49
-0.5
 49
0.01
 49
-0.5
 49
0.01
 49
-0.5
  0
LTYPE
  2
DOT_32
 70
   64
  3
-               -               
 72
   65
 73
    2
 40
0.26
 49
0.01
 49
-0.25
  0
ENDTAB
  0
TABLE
  2
STYLE
  5
3
100
AcDbSymbolTable
 70
     1
  0
STYLE
  5
10
100
AcDbSymbolTableRecord
100
AcDbTextStyleTableRecord
  2
STANDARD
 70
     0
 40
0.0
 41
1.0
 50
0.0
 71
     0
 42
0.2
  3
txt
  4
bigfont.shx
  0
STYLE
  5
26
100
AcDbSymbolTableRecord
100
AcDbTextStyleTableRecord
  2
TATEGAKI
 70
    68
 40
0.0
 41
1.0
 50
0.0
 71
     0
 42
1.0
  3
txt
  4
bigfont.shx
  0
ENDTAB
  0
TABLE
  2
LAYER
 70
    2
  0
LAYER
  2
_0-0_0
 70
   64
 62
    7
  6
CONTINUOUS
  0
LAYER
  2
ADD_LINE
 70
   64
 62
    7
  6
CONTINUOUS
  0
ENDTAB
  0
ENDSEC
  0
SECTION
  2
BLOCKS
  0
ENDSEC
  0
SECTION
  2
ENTITIES
  0
LINE
  8
_0-0_0
  6
CONTINUOUS
 62
    7
 10
204.69681761949937
 20
193.50966174811992
 11
204.69681761949937
 21
179.02586187118891
  0
LINE
  8
_0-0_0
  6
CONTINUOUS
 62
    7
 10
212.69681761949937
 20
193.50966174812095
 11
212.69681761949937
 21
183.19071773507392
  0
ARC
  8
_0-0_0
  6
CONTINUOUS
 62
    7
 10
189.28230831557948
 20
182.06937293393594
 40
15.71209905358592
 50
324.31207528496992
 51
348.830920808126
  0
ARC
  8
_0-0_0
  6
CONTINUOUS
 62
    7
 10
189.5202780997904
 20
181.99525911035789
 40
19.464298438515168
 50
323.02105636083513
 51
328.87544005749896
  0
ARC
  8
_0-0_0
  6
CONTINUOUS
 62
    7
 10
212.16058547223543
 20
164.15530075524384
 40
13.374570534634509
 50
139.149703931011
 51
165.73259769943041
  0
ARC
  8
_0-0_0
  6
CONTINUOUS
 62
    7
 10
212.16058547223156
 20
164.15530075524646
 40
9.3745705346299033
 50
139.149703931006
 51
162.92603511701671
  0
ARC
  8
_0-0_0
  6
CONTINUOUS
 62
    7
 10
208.69050041621153
 20
165.36441735252868
 40
9.7186916073972451
 50
167.59958566082329
 51
224.73823197047059
  0
ARC
  8
_0-0_0
  6
CONTINUOUS
 62
    7
 10
208.68148067715947
 20
165.34607534326517
 40
5.7003803016942154
 50
164.1001705157463
 51
225.38922197123816
  0
ARC
  8
_0-0_0
  6
CONTINUOUS
 62
    7
 10
244.65184522314144
 20
193.60881083536196
 40
55.392740461553615
 50
219.3005018067272
 51
232.02668705460962
  0
ARC
  8
_0-0_0
  6
CONTINUOUS
 62
    7
 10
245.29591826040155
 20
194.34570014526798
 40
52.36995109309003
 50
219.1412198610287
 51
231.96726077884469
  0
ARC
  8
_0-0_0
  6
CONTINUOUS
 62
    7
 10
94.283718638787377
 20
15.531811681235013
 40
177.7318102243465
 50
46.497649191363124
 51
49.13538365716348
  0
ARC
  8
_0-0_0
  6
CONTINUOUS
 62
    7
 10
102.3585162617394
 20
24.371782359188387
 40
169.75910403333759
 50
46.464672511311576
 51
49.31245330067015
  0
ARC
  8
_0-0_0
  6
CONTINUOUS
 62
    7
 10
210.95057012806251
 20
138.05743043539326
 40
8.5512509045281515
 50
16.520597796101111
 51
48.368245197267058
  0
ARC
  8
_0-0_0
  6
CONTINUOUS
 62
    7
 10
210.95057012806251
 20
138.05743043539326
 40
12.55125090452815
 50
16.520597796101111
 51
48.368245197267058
  0
ARC
  8
_0-0_0
  6
CONTINUOUS
 62
    7
 10
214.9957842891215
 20
139.73802372520947
 40
4.2203838435351688
 50
317.02385371322612
 51
10.250697205684004
  0
ARC
  8
_0-0_0
  6
CONTINUOUS
 62
    7
 10
215.07039662137254
 20
139.7126305152201
 40
8.1414302339317182
 50
318.93983371714398
 51
13.596240631886356
  0
ARC
  8
_0-0_0
  6
CONTINUOUS
 62
    7
 10
196.53635434930152
 20
154.0684068376911
 40
27.574936269438751
 50
304.18400711776798
 51
304.42198170863361
  0
ARC
  8
_0-0_0
  6
CONTINUOUS
 62
    7
 10
196.53635434930152
 20
154.0684068376911
 40
31.574936269438751
 50
304.18400711776798
 51
304.50866922945261
  0
ARC
  8
_0-0_0
  6
CONTINUOUS
 62
    7
 10
224.09659365541438
 20
113.9811771811062
 40
21.073314215790571
 50
124.93376390876058
 51
137.19677038017139
  0
ARC
  8
_0-0_0
  6
CONTINUOUS
 62
    7
 10
224.64297903086049
 20
113.36501629125098
 40
17.892278047483231
 50
125.40592516446669
 51
139.76888184880119
  0
ARC
  8
_0-0_0
  6
CONTINUOUS
 62
    7
 10
227.5487718523425
 20
115.06961627299813
 40
23.685013487906922
 50
156.80150425410423
 51
157.08445940250903
  0
ARC
  8
_0-0_0
  6
CONTINUOUS
 62
    7
 10
227.5487718523425
 20
115.06961627299813
 40
19.685013487906922
 50
179.5676508265567
 51
179.6208857199025
  0
LINE
  8
_0-0_0
  6
CONTINUOUS
 62
    7
 10
203.86427685048739
 20
115.22633394735328
 11
203.86427685048739
 21
103.50966174812106
  0
LINE
  8
_0-0_0
  6
CONTINUOUS
 62
    7
 10
211.86427685048852
 20
121.23045059463868
 11
211.86427685048852
 21
103.50966174812118
  0
ARC
  8
_0-0_0
  6
CONTINUOUS
 62
    7
 10
220.00353778510248
 20
178.53128551684688
 40
15.314708224395112
 50
178.14935647549049
 51
212.46236931155099
  0
ARC
  8
_0-0_0
  6
CONTINUOUS
 62
    7
 10
219.98059990639354
 20
178.52145984401398
 40
11.290019337837739
 50
181.904583109291
 51
211.553079592637
  0
ARC
  8
_0-0_0
  6
CONTINUOUS
 62
    7
 10
241.52756659984857
 20
197.21389347502293
 40
43.706563756246808
 50
217.99045538774851
 51
233.26881694222931
  0
ARC
  8
_0-0_0
  6
CONTINUOUS
 62
    7
 10
241.52756659984857
 20
197.21389347502293
 40
39.706563756246808
 50
218.28358638885683
 51
233.26881694222931
  0
ARC
  8
_0-0_0
  6
CONTINUOUS
 62
    7
 10
182.72758385863244
 20
121.78823806195044
 40
51.948485709380272
 50
45.300667858227783
 51
51.044646081025427
  0
ARC
  8
_0-0_0
  6
CONTINUOUS
 62
    7
 10
183.4190202743705
 20
122.52291386188028
 40
54.93993134777557
 50
45.274301056106538
 51
51.285575031293192
  0
ARC
  8
_0-0_0
  6
CONTINUOUS
 62
    7
 10
212.63563165964251
 20
152.39837580905612
 40
9.1576872675322072
 50
19.019560580138322
 51
43.599346601185829
  0
ARC
  8
_0-0_0
  6
CONTINUOUS
 62
    7
 10
212.69668601871649
 20
152.43880738301254
 40
13.084489197048899
 50
19.619610306359402
 51
44.17553844632149
  0
ARC
  8
_0-0_0
  6
CONTINUOUS
 62
    7
 10
212.83300487442648
 20
155.5978175622937
 40
9.0284191675956826
 50
307.48967562229649
 51
342.49981966932808
  0
ARC
  8
_0-0_0
  6
CONTINUOUS
 62
    7
 10
217.47712359337447
 20
153.89907309077478
 40
4.0945308840808137
 50
345.63016054303591
 51
21.245439057070755
  0
ARC
  8
_0-0_0
  6
CONTINUOUS
 62
    7
 10
217.50457004742043
 20
153.90507827363103
 40
8.0667748920694731
 50
343.98879424206353
 51
21.276325461686874
  0
ARC
  8
_0-0_0
  6
CONTINUOUS
 62
    7
 10
1651.1981856947045
 20
-1683.6967535401018
 40
2325.9021510605412
 50
128.02820161161509
 51
128.0298313650074
  0
ARC
  8
_0-0_0
  6
CONTINUOUS
 62
    7
 10
218.91326540365048
 20
125.97607254147601
 40
14.027694827917088
 50
141.22252819896801
 51
158.4526580459808
  0
ARC
  8
_0-0_0
  6
CONTINUOUS
 62
    7
 10
219.76250837523639
 20
128.40430695133421
 40
18.618866858132581
 50
177.89543547118461
 51
204.4669104071977
  0
ARC
  8
_0-0_0
  6
CONTINUOUS
 62
    7
 10
219.84092094368748
 20
128.41164450563338
 40
14.697137809572979
 50
189.54808674882594
 51
204.99379706959712
  0
ARC
  8
_0-0_0
  6
CONTINUOUS
 62
    7
 10
189.66307622424551
 20
115.33600427747899
 40
14.20162409050814
 50
359.55753585166622
 51
22.160864529856205
  0
ARC
  8
_0-0_0
  6
CONTINUOUS
 62
    7
 10
189.66307622424551
 20
115.33600427747899
 40
18.201624090508151
 50
359.55753585166622
 51
22.160864529856205
  0
LINE
  8
_0-0_0
  6
CONTINUOUS
 62
    7
 10
204.69681761949846
 20
193.50966174811992
 11
212.69681761949937
 21
193.50966174812095
  0
ARC
  8
_0-0_0
  6
CONTINUOUS
 62
    7
 10
235.79826829942454
 20
184.05504097916992
 40
23.117614024533079
 50
182.14267868613209
 51
206.78219106799676
  0
ARC
  8
_0-0_0
  6
CONTINUOUS
 62
    7
 10
235.11055049219544
 20
183.95468245890493
 40
26.426730068761628
 50
181.98099049757229
 51
209.13300913692089
  0
ARC
  8
_0-0_0
  6
CONTINUOUS
 62
    7
 10
200.67006429235357
 20
164.77686578138628
 40
16.985255223369968
 50
15.59034448191858
 51
31.447020754722701
  0
ARC
  8
_0-0_0
  6
CONTINUOUS
 62
    7
 10
199.96718180059838
 20
164.52720917031377
 40
13.72947109868327
 50
23.994693186927019
 51
28.551208034826459
  0
ARC
  8
_0-0_0
  6
CONTINUOUS
 62
    7
 10
202.87443399337258
 20
169.70679847113752
 40
15.145722528281921
 50
306.1086556234938
 51
328.69283142093582
  0
ARC
  8
_0-0_0
  6
CONTINUOUS
 62
    7
 10
202.81043925627341
 20
169.74468810828375
 40
11.219417333648369
 50
307.12557817474698
 51
331.48843436710723
  0
ARC
  8
_0-0_0
  6
CONTINUOUS
 62
    7
 10
245.93562310971538
 20
106.24093981129522
 40
61.560607562482339
 50
123.67648318957241
 51
126.11062979963611
  0
ARC
  8
_0-0_0
  6
CONTINUOUS
 62
    7
 10
245.71151146222746
 20
106.53714882723614
 40
65.189841052351071
 50
123.6569249955202
 51
126.64816637605088
  0
ARC
  8
_0-0_0
  6
CONTINUOUS
 62
    7
 10
209.7365249659365
 20
166.84284782423572
 40
7.7100724406174681
 50
351.53101996292588
 51
18.911829697137396
  0
ARC
  8
_0-0_0
  6
CONTINUOUS
 62
    7
 10
205.80642740264443
 20
142.59464316031244
 40
7.4247349299565748
 50
134.41679140476489
 51
137.3810882463886
  0
ARC
  8
_0-0_0
  6
CONTINUOUS
 62
    7
 10
205.72653714133639
 20
142.64209637616068
 40
11.33495271794725
 50
152.74973692365981
 51
197.16120969535871
  0
ARC
  8
_0-0_0
  6
CONTINUOUS
 62
    7
 10
220.36662541300143
 20
149.69650865396318
 40
23.51142049346252
 50
202.20895438699037
 51
229.95412991089248
  0
ARC
  8
_0-0_0
  6
CONTINUOUS
 62
    7
 10
220.34458639072841
 20
149.68421908463131
 40
27.486371402844
 50
202.20260204459103
 51
229.73207719264133
  0
ARC
  8
_0-0_0
  6
CONTINUOUS
 62
    7
 10
177.60394464759656
 20
100.68089868646564
 40
41.542336170000588
 50
38.977350915860008
 51
48.29964227685354
  0
ARC
  8
_0-0_0
  6
CONTINUOUS
 62
    7
 10
177.60394464759656
 20
100.68089868646564
 40
37.542336170000603
 50
39.161823742749
 51
48.299642276853533
  0
ARC
  8
_0-0_0
  6
CONTINUOUS
 62
    7
 10
201.40879207634953
 20
120.68494326298242
 40
10.46970582734436
 50
2.9866576388280031
 51
35.815491833118024
  0
ARC
  8
_0-0_0
  6
CONTINUOUS
 62
    7
 10
201.40879207634839
 20
120.68494326298173
 40
6.4697058273463171
 50
3.7996257985422512
 51
34.930308694025292
  0
LINE
  8
_0-0_0
  6
CONTINUOUS
 62
    7
 10
203.86427685048739
 20
103.50966174812106
 11
211.86427685048852
 21
103.50966174812129
  0
ARC
  8
_0-0_0
  6
CONTINUOUS
 62
    7
 10
161.79195707207145
 20
208.23224623122485
 40
59.043932482359338
 50
308.90345615992783
 51
309.50359778902151
  0
ARC
  8
_0-0_0
  6
CONTINUOUS
 62
    7
 10
198.18065085852345
 20
176.12605600661391
 40
10.51633801489133
 50
318.94306905984809
 51
327.13431605177902
  0
ARC
  8
_0-0_0
  6
CONTINUOUS
 62
    7
 10
205.80323749482341
 20
153.2182893585973
 40
11.41167381570869
 50
127.3995281859996
 51
195.92719492266929
  0
ARC
  8
_0-0_0
  6
CONTINUOUS
 62
    7
 10
205.80323749482341
 20
153.2182893585973
 40
7.4116738157086948
 50
127.67592269736559
 51
195.92719492266926
  0
ARC
  8
_0-0_0
  6
CONTINUOUS
 62
    7
 10
210.15593218031745
 20
154.38411350879164
 40
15.917363190440179
 50
195.66306383231262
 51
227.54012039004013
  0
ARC
  8
_0-0_0
  6
CONTINUOUS
 62
    7
 10
210.15593218031745
 20
154.38411350879164
 40
11.917363190440181
 50
195.66306383231262
 51
227.54012039004013
  0
ARC
  8
_0-0_0
  6
CONTINUOUS
 62
    7
 10
273.09212567495456
 20
214.15421618603284
 40
102.67962669467158
 50
224.14436546239583
 51
232.58569619400464
  0
ARC
  8
_0-0_0
  6
CONTINUOUS
 62
    7
 10
273.92049548896352
 20
215.15822922643986
 40
99.980384640231776
 50
224.09084279958614
 51
232.55822830763674
  0
ARC
  8
_0-0_0
  6
CONTINUOUS
 62
    7
 10
187.04205670492956
 20
104.92223725599172
 40
36.414947483851194
 50
42.754751957342862
 51
49.469025609599235
  0
ARC
  8
_0-0_0
  6
CONTINUOUS
 62
    7
 10
188.50917803460038
 20
106.80478427253854
 40
38.024926931893191
 50
42.803732463563037
 51
49.633537338280455
  0
ARC
  8
_0-0_0
  6
CONTINUOUS
 62
    7
 10
211.78553097737654
 20
127.90954420367007
 40
2.642703550070296
 50
328.11358560148261
 51
40.989507130473584
  0
ARC
  8
_0-0_0
  6
CONTINUOUS
 62
    7
 10
211.87058895445853
 20
127.90587153411138
 40
6.5587777413102017
 50
323.21422412334266
 51
46.232461795885371
  0
LINE
  8
_0-0_0
  6
CONTINUOUS
 62
    7
 10
207.86427685048852
 20
121.11367374153212
 11
207.86427685048852
 21
103.50966174812118
  0
LINE
  8
_0-0_0
  6
CONTINUOUS
 62
    7
 10
208.69681761949937
 20
193.50966174812095
 11
208.69681761949937
 21
178.14623464399597
  0
ARC
  8
_0-0_0
  6
CONTINUOUS
 62
    7
 10
235.08195629552642
 20
109.2625790702582
 40
27.217733853371669
 50
140.66789488155814
 51
149.58538343852103
  0
ARC
  8
_0-0_0
  6
CONTINUOUS
 62
    7
 10
235.08195629552642
 20
109.2625790702582
 40
23.217733853371669
 50
140.66789488155814
 51
179.88543698581273
  0
ARC
  8
_0-0_0
  6
CONTINUOUS
 62
    7
 10
161.92203758155642
 20
208.10669492125101
 40
62.863287065269461
 50
312.40090821762999
 51
318.66939542395937
  0
ARC
  8
_0-0_0
  6
CONTINUOUS
 62
    7
 10
198.18065085852345
 20
176.12605600661391
 40
14.51633801489133
 50
318.94306905984809
 51
322.42685262725598
  0
LINE
  8
_0-0_0
  6
CONTINUOUS
 62
    7
 10
212.69681761949937
 20
193.50966174812095
 11
212.69681761949937
 21
183.19071773506494
  0
ARC
  8
_0-0_0
  6
CONTINUOUS
 62
    7
 10
198.18065085852345
 20
176.12605600661391
 40
14.51633801489133
 50
339.12795671489278
 51
340.76648695516036
  0
ARC
  8
_0-0_0
  6
CONTINUOUS
 62
    7
 10
1651.1981856947045
 20
-1683.6967535401018
 40
2325.9021510605412
 50
128.12957789686669
 51
128.35795037115881
  0
ARC
  8
_0-0_0
  6
CONTINUOUS
 62
    7
 10
1651.1981856947045
 20
-1683.6967535401018
 40
2321.9021510605412
 50
128.11853193245281
 51
128.33801978217281
  0
ARC
  8
_0-0_0
  6
CONTINUOUS
 62
    7
 10
212.83300487442648
 20
155.5978175622937
 40
13.028419167595681
 50
309.15972466046156
 51
342.49981966932808
  0
ARC
  8
_0-0_0
  6
CONTINUOUS
 62
    7
 10
218.91326540365048
 20
125.97607254147601
 40
18.027694827917092
 50
140.84609575712884
 51
153.33518182233809
  0
ARC
  8
_0-0_0
  6
CONTINUOUS
 62
    7
 10
218.91326540365048
 20
125.97607254147601
 40
18.027694827917092
 50
167.5717333081098
 51
170.05968331882769
  0
ARC
  8
_0-0_0
  6
CONTINUOUS
 62
    7
 10
227.5487718523425
 20
115.06961627299813
 40
23.685013487906922
 50
179.57339293384001
 51
179.6208857199025
  0
ARC
  8
_0-0_0
  6
CONTINUOUS
 62
    7
 10
224.09659365541438
 20
113.9811771811062
 40
21.073314215790571
 50
148.31936984970361
 51
150.3706184484613
  0
ARC
  8
_0-0_0
  6
CONTINUOUS
 62
    7
 10
205.80642740264443
 20
142.59464316031244
 40
7.4247349299565748
 50
172.2298947650628
 51
193.91177011973639
  0
ARC
  8
_0-0_0
  6
CONTINUOUS
 62
    7
 10
245.71151146222746
 20
106.53714882723614
 40
65.189841052351071
 50
130.16919398827284
 51
136.3056691289986
  0
ARC
  8
_0-0_0
  6
CONTINUOUS
 62
    7
 10
245.93562310971538
 20
106.24093981129522
 40
61.560607562482339
 50
129.878979707626
 51
137.41510140281949
  0
ARC
  8
_0-0_0
  6
CONTINUOUS
 62
    7
 10
196.53635434930152
 20
154.0684068376911
 40
31.574936269438751
 50
312.31858421225348
 51
321.38949055602882
  0
ARC
  8
_0-0_0
  6
CONTINUOUS
 62
    7
 10
196.53635434930152
 20
154.0684068376911
 40
27.574936269438751
 50
312.77191486915268
 51
321.38949055602882
  0
ARC
  8
_0-0_0
  6
CONTINUOUS
 62
    7
 10
161.79195707207145
 20
208.23224623122485
 40
59.043932482359338
 50
314.27988782371739
 51
318.64273066099719
  0
ENDSEC
  0
EOF
