  0
SECTION
  2
HEADER
  9
$ACADVER
  1
AC1009
  9
$INSBASE
 10
0
 20
0
 30
0
  9
$EXTMIN
 10
0
 20
0
  9
$EXTMAX
 10
420
 20
297
  9
$LIMMIN
 10
0
 20
0
  9
$LIMMAX
 10
420
 20
297
  9
$LTSCALE
 40
1
  0
ENDSEC
  0
SECTION
  2
TABLES
  0
TABLE
  2
LTYPE
 70
     9
  0
LTYPE
  2
CONTINUOUS
 70
    64
  3
実線
 72
    65
 73
     0
 40
0.0
  0
LTYPE
  2
DASHED1
 70
    64
  3
--  --  --  --  --  --  --  --  
 72
    65
 73
     2
 40
2.5
 49
1.25
 49
-1.25
  0
LTYPE
  2
DASHED2
 70
    64
  3
----    ----    ----    ----    
 72
    65
 73
     2
 40
5.0
 49
2.5
 49
-2.5
  0
LTYPE
  2
DASHED3
 70
    64
  3
------  ------  ------  ------  
 72
    65
 73
     2
 40
5.0
 49
3.75
 49
-1.25
  0
LTYPE
  2
CENTER1
 70
    64
  3
----- - ----- - ----- - ----- - 
 72
    65
 73
     4
 40
10.0
 49
6.25
 49
-1.25
 49
1.25
 49
-1.25
  0
LTYPE
  2
CENTER2
 70
    64
  3
----------  --  ----------  --  
 72
    65
 73
     4
 40
20.0
 49
12.5
 49
-2.5
 49
2.5
 49
-2.5
  0
LTYPE
  2
PHANTOM1
 70
    64
  3
--- - - --- - - --- - - --- - - 
 72
    65
 73
     6
 40
10.0
 49
3.25
 49
-1.25
 49
1.25
 49
-1.25
 49
1.25
 49
-1.25
  0
LTYPE
  2
PHANTOM2
 70
    64
  3
--------  -  -  --------  -  -  
 72
    65
 73
     6
 40
20.0
 49
10.0
 49
-2.5
 49
1.25
 49
-2.5
 49
1.25
 49
-2.5
  0
LTYPE
  2
DOT
 70
    64
  3
-   -   -   -   -   -   -   -   
 72
    65
 73
     2
 40
2.5
 49
0.625
 49
-1.875
  0
LTYPE
  2
DUMMY
 70
    64
  3
ダミー
 72
    65
 73
     0
 40
0.0
  0
LTYPE
  2
RAND1
 70
    64
  3
ランダム線1
 72
    65
 73
     4
 40
10.0
 49
1.0
 49
-2.0
 49
3.0
 49
-4.0
  0
LTYPE
  2
RAND2
 70
    64
  3
ランダム線2
 72
    65
 73
     4
 40
14.0
 49
2.0
 49
-3.0
 49
4.0
 49
-5.0
  0
LTYPE
  2
RAND3
 70
    64
  3
ランダム線3
 72
    65
 73
     4
 40
18.0
 49
3.0
 49
-4.0
 49
5.0
 49
-6.0
  0
LTYPE
  2
RAND4
 70
    64
  3
ランダム線4
 72
    65
 73
     4
 40
22.0
 49
4.0
 49
-5.0
 49
6.0
 49
-7.0
  0
LTYPE
  2
RAND5
 70
    64
  3
ランダム線5
 72
    65
 73
     4
 40
26.0
 49
5.0
 49
-6.0
 49
7.0
 49
-8.0
  0
LTYPE
  2
LONG1
 70
    64
  3
----------  --  ----------  --  
 72
    65
 73
     4
 40
40.0
 49
32.5
 49
-2.5
 49
2.5
 49
-2.5
  0
LTYPE
  2
LONG2
 70
    64
  3
--------  -  -  --------  -  -  
 72
    65
 73
     6
 40
40.0
 49
30.0
 49
-2.5
 49
1.25
 49
-2.5
 49
1.25
 49
-2.5
  0
LTYPE
  2
LONG3
 70
    64
  3
+++++++++++++++..+++++++++++++++
 72
    65
 73
     2
 40
40.0
 49
37.5
 49
-2.5
  0
LTYPE
  2
LONG4
 70
    64
  3
+++++++++++++++..+++++++++++++++
 72
    65
 73
     2
 40
80.0
 49
75.0
 49
-5.0
  0
LTYPE
  2
LONG5
 70
    64
  3
----------  --  ----------  --  
 72
    65
 73
     4
 40
60.0
 49
37.5
 49
-7.5
 49
7.5
 49
-7.5
  0
LTYPE
  2
dashed
 70
   64
  3
-------   -------------   ------
 72
   65
 73
    2
 40
7.5
 49
6
 49
-1.5
  0
LTYPE
  2
dashed_spaced
 70
   64
  3
----        --------        ----
 72
   65
 73
    2
 40
12
 49
6
 49
-6
  0
LTYPE
  2
long_dashed_dotted
 70
   64
  3
------------- --- --------------
 72
   65
 73
    4
 40
15.25
 49
12
 49
-1.5
 49
0.25
 49
-1.5
  0
LTYPE
  2
long_dashed_double-dotted
 70
   64
  3
----------- --- --- ------------
 72
   65
 73
    6
 40
17
 49
12
 49
-1.5
 49
0.25
 49
-1.5
 49
0.25
 49
-1.5
  0
LTYPE
  2
long_dashed_triplicate-dotted
 70
   64
  3
--------- --- --- --- ----------
 72
   65
 73
    8
 40
18.75
 49
12
 49
-1.5
 49
0.25
 49
-1.5
 49
0.25
 49
-1.5
 49
0.25
 49
-1.5
  0
LTYPE
  2
dotted
 70
   64
  3
   -       -       -       -    
 72
   65
 73
    2
 40
1.75
 49
0.25
 49
-1.5
  0
LTYPE
  2
chain
 70
   64
  3
-------------- -- --------------
 72
   65
 73
    4
 40
18.5
 49
12
 49
-1.5
 49
3.5
 49
-1.5
  0
LTYPE
  2
chain_double_dash
 70
   64
  3
------------ -- -- -------------
 72
   65
 73
    6
 40
23.5
 49
12
 49
-1.5
 49
3.5
 49
-1.5
 49
3.5
 49
-1.5
  0
LTYPE
  2
dashed_dotted
 70
   64
  3
-----------     -     ----------
 72
   65
 73
    4
 40
9.25
 49
6
 49
-1.5
 49
0.25
 49
-1.5
  0
LTYPE
  2
double-dashed_dotted
 70
   64
  3
------   -----------   -   -----
 72
   65
 73
    6
 40
16.75
 49
6
 49
-1.5
 49
6
 49
-1.5
 49
0.25
 49
-1.5
  0
LTYPE
  2
dashed_double-dotted
 70
   64
  3
---------    -    -    ---------
 72
   65
 73
    6
 40
11
 49
6
 49
-1.5
 49
0.25
 49
-1.5
 49
0.25
 49
-1.5
  0
LTYPE
  2
double-dashed_double-dotted
 70
   64
  3
-----   ---------   -   -   ----
 72
   65
 73
    8
 40
18.5
 49
6
 49
-1.5
 49
6
 49
-1.5
 49
0.25
 49
-1.5
 49
0.25
 49
-1.5
  0
LTYPE
  2
dashed_triplicate-dotted
 70
   64
  3
-------    -    -    -    ------
 72
   65
 73
    8
 40
12.75
 49
6
 49
-1.5
 49
0.25
 49
-1.5
 49
0.25
 49
-1.5
 49
0.25
 49
-1.5
  0
LTYPE
  2
double-dashed_triplicate-dotted
 70
   64
  3
-----  ---------  -  -  -  -----
 72
   65
 73
   10
 40
20.25
 49
6
 49
-1.5
 49
6
 49
-1.5
 49
0.25
 49
-1.5
 49
0.25
 49
-1.5
 49
0.25
 49
-1.5
  0
LTYPE
  2
undefined
 70
   64
  3
--------------------------------
 72
   65
 73
    0
 40
0
  0
LTYPE
  2
BORDER
 70
   64
  3
----     --------     -     ----
 72
   65
 73
    6
 40
1.76
 49
0.5
 49
-0.25
 49
0.5
 49
-0.25
 49
0.01
 49
-0.25
  0
LTYPE
  2
BORDER2
 70
   64
  3
----     --------     -     ----
 72
   65
 73
    6
 40
0.885
 49
0.25
 49
-0.125
 49
0.25
 49
-0.125
 49
0.01
 49
-0.125
  0
LTYPE
  2
BORDERX2
 70
   64
  3
----     --------     -     ----
 72
   65
 73
    6
 40
3.5099999999999998
 49
1
 49
-0.5
 49
1
 49
-0.5
 49
0.01
 49
-0.5
  0
LTYPE
  2
CENTER
 70
   64
  3
----------    ----    ----------
 72
   65
 73
    4
 40
2
 49
1.25
 49
-0.25
 49
0.25
 49
-0.25
  0
LTYPE
  2
CENTER2_21
 70
   64
  3
----------    ----    ----------
 72
   65
 73
    4
 40
1.125
 49
0.75
 49
-0.125
 49
0.125
 49
-0.125
  0
LTYPE
  2
CENTERX2
 70
   64
  3
----------    ----    ----------
 72
   65
 73
    4
 40
4
 49
2.5
 49
-0.5
 49
0.5
 49
-0.5
  0
LTYPE
  2
DASHDOT
 70
   64
  3
--------        -        -------
 72
   65
 73
    4
 40
1.01
 49
0.5
 49
-0.25
 49
0.01
 49
-0.25
  0
LTYPE
  2
DASHDOT2
 70
   64
  3
--------        -        -------
 72
   65
 73
    4
 40
0.51
 49
0.25
 49
-0.125
 49
0.01
 49
-0.125
  0
LTYPE
  2
DASHDOTX2
 70
   64
  3
--------        -        -------
 72
   65
 73
    4
 40
2.0099999999999998
 49
1
 49
-0.5
 49
0.01
 49
-0.5
  0
LTYPE
  2
DASHED
 70
   64
  3
------     -----------     -----
 72
   65
 73
    2
 40
0.75
 49
0.5
 49
-0.25
  0
LTYPE
  2
DASHED2_27
 70
   64
  3
------     -----------     -----
 72
   65
 73
    2
 40
0.375
 49
0.25
 49
-0.125
  0
LTYPE
  2
DASHEDX2
 70
   64
  3
------     -----------     -----
 72
   65
 73
    2
 40
1.5
 49
1
 49
-0.5
  0
LTYPE
  2
DIVIDE
 70
   64
  3
------      -      -      ------
 72
   65
 73
    6
 40
1.27
 49
0.5
 49
-0.25
 49
0.01
 49
-0.25
 49
0.01
 49
-0.25
  0
LTYPE
  2
DIVIDE2
 70
   64
  3
------      -      -      ------
 72
   65
 73
    6
 40
0.645
 49
0.25
 49
-0.125
 49
0.01
 49
-0.125
 49
0.01
 49
-0.125
  0
LTYPE
  2
DIVIDEX2
 70
   64
  3
------      -      -      ------
 72
   65
 73
    6
 40
2.5199999999999996
 49
1
 49
-0.5
 49
0.01
 49
-0.5
 49
0.01
 49
-0.5
  0
LTYPE
  2
DOT_32
 70
   64
  3
-               -               
 72
   65
 73
    2
 40
0.26
 49
0.01
 49
-0.25
  0
ENDTAB
  0
TABLE
  2
STYLE
  5
3
100
AcDbSymbolTable
 70
     1
  0
STYLE
  5
10
100
AcDbSymbolTableRecord
100
AcDbTextStyleTableRecord
  2
STANDARD
 70
     0
 40
0.0
 41
1.0
 50
0.0
 71
     0
 42
0.2
  3
txt
  4
bigfont.shx
  0
STYLE
  5
26
100
AcDbSymbolTableRecord
100
AcDbTextStyleTableRecord
  2
TATEGAKI
 70
    68
 40
0.0
 41
1.0
 50
0.0
 71
     0
 42
1.0
  3
txt
  4
bigfont.shx
  0
ENDTAB
  0
TABLE
  2
LAYER
 70
    2
  0
LAYER
  2
_0-0_0
 70
   64
 62
    7
  6
CONTINUOUS
  0
LAYER
  2
ADD_LINE
 70
   64
 62
    7
  6
CONTINUOUS
  0
ENDTAB
  0
ENDSEC
  0
SECTION
  2
BLOCKS
  0
BLOCK
  2
-000-retet
 70
   64
 10
0
 20
0
 30
0
  0
LINE
  8
_0-0_0
  6
CONTINUOUS
 62
    7
 10
16497.602907161217
 20
10314.17379912093
 11
16497.60290716121
 21
10145.642967381709
  0
LINE
  8
_0-0_0
  6
CONTINUOUS
 62
    7
 10
16597.602907121211
 20
10314.173799120939
 11
16597.602907121211
 21
10197.703665659439
  0
ARC
  8
_0-0_0
  6
CONTINUOUS
 62
    7
 10
16304.921540939289
 20
10183.68685565082
 40
196.40123809126129
 50
324.3120752849681
 51
348.83092080812662
  0
ARC
  8
_0-0_0
  6
CONTINUOUS
 62
    7
 10
16307.896163240739
 20
10182.76043285647
 40
243.30373038411551
 50
323.02105636083542
 51
328.87544005749862
  0
ARC
  8
_0-0_0
  6
CONTINUOUS
 62
    7
 10
16590.900005283089
 20
9959.7609535067477
 40
167.18213161605678
 50
139.14970393101027
 51
165.73259769943047
  0
ARC
  8
_0-0_0
  6
CONTINUOUS
 62
    7
 10
16590.900005283049
 20
9959.7609535067804
 40
117.1821316359996
 50
139.14970393100481
 51
162.92603511701594
  0
ARC
  8
_0-0_0
  6
CONTINUOUS
 62
    7
 10
16547.523942100139
 20
9974.8749109667606
 40
121.48364504387079
 50
167.59958566082329
 51
224.73823197047059
  0
ARC
  8
_0-0_0
  6
CONTINUOUS
 62
    7
 10
16547.411195362038
 20
9974.6456358510604
 40
71.254753742675007
 50
164.10017051574579
 51
225.3892219712381
  0
ARC
  8
_0-0_0
  6
CONTINUOUS
 62
    7
 10
16997.040752006949
 20
10327.929829360959
 40
692.40925549244901
 50
219.30050180672643
 51
232.02668705461184
  0
ARC
  8
_0-0_0
  6
CONTINUOUS
 62
    7
 10
17005.091664969488
 20
10337.140945731089
 40
654.62438840176821
 50
219.1412198610291
 51
231.96726077884509
  0
ARC
  8
_0-0_0
  6
CONTINUOUS
 62
    7
 10
15117.4391704544
 20
8101.9673408247736
 40
2221.6476269156478
 50
46.49764919136242
 51
49.135383657164574
  0
ARC
  8
_0-0_0
  6
CONTINUOUS
 62
    7
 10
15218.37414070092
 20
8212.4669742549904
 40
2121.988799567901
 50
46.464672511309139
 51
49.312453300671116
  0
ARC
  8
_0-0_0
  6
CONTINUOUS
 62
    7
 10
16575.774813486969
 20
9633.5375746391092
 40
106.8906362638444
 50
16.520597796102692
 51
48.368245197267058
  0
ARC
  8
_0-0_0
  6
CONTINUOUS
 62
    7
 10
16575.774813486969
 20
9633.5375746391092
 40
156.89063624384389
 50
16.520597796102692
 51
48.368245197267058
  0
ARC
  8
_0-0_0
  6
CONTINUOUS
 62
    7
 10
16626.339990479981
 20
9654.5449907534075
 40
52.754798023087112
 50
317.02385371322367
 51
10.250697205683593
  0
ARC
  8
_0-0_0
  6
CONTINUOUS
 62
    7
 10
16627.272644632751
 20
9654.227575628669
 40
101.76787788343819
 50
318.9398337171441
 51
13.596240631887042
  0
ARC
  8
_0-0_0
  6
CONTINUOUS
 62
    7
 10
16395.597116324541
 20
9833.6747795877727
 40
344.68670323010588
 50
304.18400711776559
 51
304.42198170863514
  0
ARC
  8
_0-0_0
  6
CONTINUOUS
 62
    7
 10
16395.597116324541
 20
9833.6747795877727
 40
344.68670323010588
 50
312.7719148691545
 51
321.38949055602905
  0
ARC
  8
_0-0_0
  6
CONTINUOUS
 62
    7
 10
16395.597116324541
 20
9833.6747795877727
 40
394.68670321010541
 50
304.18400711776559
 51
304.50866922945318
  0
ARC
  8
_0-0_0
  6
CONTINUOUS
 62
    7
 10
16395.597116324541
 20
9833.6747795877727
 40
394.68670321010541
 50
312.31858421225348
 51
321.38949055602899
  0
ARC
  8
_0-0_0
  6
CONTINUOUS
 62
    7
 10
16740.100107513146
 20
9332.584409080906
 40
263.41642759201267
 50
124.93376390876099
 51
137.19677038017281
  0
ARC
  8
_0-0_0
  6
CONTINUOUS
 62
    7
 10
16740.100107513146
 20
9332.584409080906
 40
263.41642759201267
 50
148.31936984970471
 51
150.37061844846059
  0
ARC
  8
_0-0_0
  6
CONTINUOUS
 62
    7
 10
16746.929924703498
 20
9324.8823979607987
 40
223.65347550407657
 50
125.40592516446519
 51
139.19479346615228
  0
ARC
  8
_0-0_0
  6
CONTINUOUS
 62
    7
 10
16783.252334957488
 20
9346.1898977241108
 40
296.06266848040809
 50
156.80150425410429
 51
157.08445940251011
  0
LINE
  8
_0-0_0
  6
CONTINUOUS
 62
    7
 10
16497.602907161217
 20
9348.1488686527664
 11
16497.602907161217
 21
9214.207132870948
  0
LINE
  8
_0-0_0
  6
CONTINUOUS
 62
    7
 10
16597.602907121211
 20
9397.3394353546628
 11
16597.602907121218
 21
9214.2071328709517
  0
ARC
  8
_0-0_0
  6
CONTINUOUS
 62
    7
 10
16688.93690915472
 20
10139.46076295491
 40
191.43385272836318
 50
178.14935647548913
 51
212.46236931155022
  0
ARC
  8
_0-0_0
  6
CONTINUOUS
 62
    7
 10
16688.650185670958
 20
10139.33794204454
 40
141.1252416665202
 50
181.90458310929003
 51
211.55307959263712
  0
ARC
  8
_0-0_0
  6
CONTINUOUS
 62
    7
 10
16957.98726923142
 20
10372.99336233869
 40
546.33204673454622
 50
217.99045538774863
 51
233.26881694222919
  0
ARC
  8
_0-0_0
  6
CONTINUOUS
 62
    7
 10
16957.98726923142
 20
10372.99336233869
 40
496.33204675454675
 50
218.28358638885513
 51
233.26881694222919
  0
ARC
  8
_0-0_0
  6
CONTINUOUS
 62
    7
 10
16222.98748526023
 20
9430.1726700524196
 40
649.35607110750391
 50
45.300667858228117
 51
51.044646081025498
  0
ARC
  8
_0-0_0
  6
CONTINUOUS
 62
    7
 10
16231.630440453488
 20
9439.3561175478717
 40
686.74914157248736
 50
45.274301056105998
 51
51.285575031294549
  0
ARC
  8
_0-0_0
  6
CONTINUOUS
 62
    7
 10
16596.838082623301
 20
9812.7993917381864
 40
114.47109079836289
 50
19.01956058013738
 51
43.599346601186198
  0
ARC
  8
_0-0_0
  6
CONTINUOUS
 62
    7
 10
16597.601262111428
 20
9813.3047864124419
 40
163.556114897687
 50
19.61961030636046
 51
44.175538446320523
  0
ARC
  8
_0-0_0
  6
CONTINUOUS
 62
    7
 10
16599.305247807119
 20
9852.7924136376605
 40
112.8552395498027
 50
307.4896756222991
 51
342.49981966932671
  0
ARC
  8
_0-0_0
  6
CONTINUOUS
 62
    7
 10
16599.305247807119
 20
9852.7924136376605
 40
162.85523952980219
 50
309.15972466046208
 51
342.49981966932671
  0
ARC
  8
_0-0_0
  6
CONTINUOUS
 62
    7
 10
16657.356731770738
 20
9831.5581077521656
 40
51.181636030536957
 50
345.63016054303586
 51
21.245439057071849
  0
ARC
  8
_0-0_0
  6
CONTINUOUS
 62
    7
 10
16657.69981244619
 20
9831.6331725378404
 40
100.83468611053338
 50
343.98879424206388
 51
21.276325461686667
  0
ARC
  8
_0-0_0
  6
CONTINUOUS
 62
    7
 10
34578.870000868577
 20
-13138.389715945559
 40
29073.776876626936
 50
128.02820161161409
 51
128.02983136500848
  0
ARC
  8
_0-0_0
  6
CONTINUOUS
 62
    7
 10
34578.870000868577
 20
-13138.389715945559
 40
29073.776876626936
 50
128.12957789686851
 51
128.35795037115659
  0
ARC
  8
_0-0_0
  6
CONTINUOUS
 62
    7
 10
34578.870000868577
 20
-13138.389715945559
 40
29023.776876646938
 50
128.11853193245321
 51
128.33801978217309
  0
ARC
  8
_0-0_0
  6
CONTINUOUS
 62
    7
 10
16675.308504392018
 20
9482.5206010255515
 40
225.34618525882269
 50
140.8460957571279
 51
153.33518182233689
  0
ARC
  8
_0-0_0
  6
CONTINUOUS
 62
    7
 10
16675.308504392018
 20
9482.5206010255515
 40
225.34618525882269
 50
167.57173330811011
 51
170.0596833188265
  0
ARC
  8
_0-0_0
  6
CONTINUOUS
 62
    7
 10
16675.308504392018
 20
9482.5206010255515
 40
175.34618527882319
 50
141.22252819896801
 51
158.4526580459823
  0
ARC
  8
_0-0_0
  6
CONTINUOUS
 62
    7
 10
16618.08434249898
 20
9507.4887945294231
 40
165.3271787741885
 50
175.16614361557609
 51
213.39895802454751
  0
ARC
  8
_0-0_0
  6
CONTINUOUS
 62
    7
 10
16589.256624964579
 20
9489.6851811869437
 40
83.830820582770968
 50
184.92264679693841
 51
216.107938796534
  0
ARC
  8
_0-0_0
  6
CONTINUOUS
 62
    7
 10
16380.839324527089
 20
9354.5878483836932
 40
116.94247670370419
 50
356.84363593213595
 51
31.956077863057885
  0
ARC
  8
_0-0_0
  6
CONTINUOUS
 62
    7
 10
16402.249939724017
 20
9356.7337927118788
 40
145.62954628114531
 50
3.5317595999407692
 51
35.009372777807769
  0
LINE
  8
_0-0_0
  6
CONTINUOUS
 62
    7
 10
16497.60290716121
 20
10314.17379912093
 11
16597.602907121211
 21
10314.173799120939
  0
ARC
  8
_0-0_0
  6
CONTINUOUS
 62
    7
 10
16886.371040504757
 20
10208.507706206319
 40
288.97017519107226
 50
182.14267868613152
 51
206.78219106799762
  0
ARC
  8
_0-0_0
  6
CONTINUOUS
 62
    7
 10
16877.77456791783
 20
10207.25322470352
 40
330.3341257273832
 50
181.98099049757349
 51
209.13300913692029
  0
ARC
  8
_0-0_0
  6
CONTINUOUS
 62
    7
 10
16447.268490592021
 20
9967.5305163304201
 40
212.3156902071961
 50
15.590344481918313
 51
31.447020754723635
  0
ARC
  8
_0-0_0
  6
CONTINUOUS
 62
    7
 10
16438.482459448598
 20
9964.4098086932627
 40
171.61838866489157
 50
23.994693186928131
 51
28.551208034827042
  0
ARC
  8
_0-0_0
  6
CONTINUOUS
 62
    7
 10
16474.823111843729
 20
10029.154674927659
 40
189.32153152779338
 50
306.10865562349562
 51
328.69283142093553
  0
ARC
  8
_0-0_0
  6
CONTINUOUS
 62
    7
 10
16474.023177630319
 20
10029.6282953918
 40
140.24271661450598
 50
307.12557817474504
 51
331.4884343671074
  0
ARC
  8
_0-0_0
  6
CONTINUOUS
 62
    7
 10
17013.087975582719
 20
9235.8314419969702
 40
769.50759422321778
 50
123.6764831895715
 51
126.11062979963619
  0
ARC
  8
_0-0_0
  6
CONTINUOUS
 62
    7
 10
17013.087975582719
 20
9235.8314419969702
 40
769.50759422321778
 50
129.87897970762381
 51
137.41510140282031
  0
ARC
  8
_0-0_0
  6
CONTINUOUS
 62
    7
 10
17010.286579990228
 20
9239.5340546947518
 40
814.87301282843032
 50
123.65692499552091
 51
126.64816637605011
  0
ARC
  8
_0-0_0
  6
CONTINUOUS
 62
    7
 10
17010.286579990228
 20
9239.5340546947518
 40
814.87301282843032
 50
130.16919398827091
 51
136.30566912899803
  0
ARC
  8
_0-0_0
  6
CONTINUOUS
 62
    7
 10
16560.599248966471
 20
9993.355291855707
 40
96.375905469166938
 50
351.53101996292708
 51
18.911829697137307
  0
ARC
  8
_0-0_0
  6
CONTINUOUS
 62
    7
 10
16511.47302944498
 20
9690.2527336779094
 40
92.809186587332505
 50
134.41679140476447
 51
137.38108824638789
  0
ARC
  8
_0-0_0
  6
CONTINUOUS
 62
    7
 10
16511.47302944498
 20
9690.2527336779094
 40
92.809186587332505
 50
172.22989476506342
 51
193.91177011973633
  0
ARC
  8
_0-0_0
  6
CONTINUOUS
 62
    7
 10
16510.474401179028
 20
9690.8458988757775
 40
141.6869089176644
 50
152.7497369236593
 51
197.16120969535879
  0
ARC
  8
_0-0_0
  6
CONTINUOUS
 62
    7
 10
16693.475504501639
 20
9779.0260523130346
 40
293.89275605072112
 50
202.20895438698949
 51
229.95412991089262
  0
ARC
  8
_0-0_0
  6
CONTINUOUS
 62
    7
 10
16693.200016723338
 20
9778.8724326964493
 40
343.57964239811452
 50
202.2026020445899
 51
229.7320771926409
  0
ARC
  8
_0-0_0
  6
CONTINUOUS
 62
    7
 10
16158.941995147899
 20
9166.3309279644
 40
519.27920191729004
 50
38.977350915859972
 51
48.299642276852879
  0
ARC
  8
_0-0_0
  6
CONTINUOUS
 62
    7
 10
16158.941995147899
 20
9166.3309279644
 40
469.27920193729057
 50
39.161823742748439
 51
48.299642276852879
  0
ARC
  8
_0-0_0
  6
CONTINUOUS
 62
    7
 10
16443.120340736197
 20
9395.0444120115153
 40
154.49961310322618
 50
0.8511347387335846
 51
39.330128506319312
  0
ARC
  8
_0-0_0
  6
CONTINUOUS
 62
    7
 10
16456.502587888259
 20
9416.3814850708295
 40
80.871322809479551
 50
356.48290957868039
 51
34.930308694023779
  0
LINE
  8
_0-0_0
  6
CONTINUOUS
 62
    7
 10
16497.602907161217
 20
9214.207132870948
 11
16597.602907121211
 21
9214.2071328709499
  0
ARC
  8
_0-0_0
  6
CONTINUOUS
 62
    7
 10
15961.29215053289
 20
10510.72277173612
 40
738.0491557342641
 50
308.90345615992908
 51
309.50359778902242
  0
ARC
  8
_0-0_0
  6
CONTINUOUS
 62
    7
 10
15961.29215053289
 20
10510.72277173612
 40
738.0491557342641
 50
314.27988782371722
 51
318.64273066099639
  0
ARC
  8
_0-0_0
  6
CONTINUOUS
 62
    7
 10
15962.918156900809
 20
10509.15338036207
 40
785.79108800154313
 50
312.4009082176284
 51
318.66939542395983
  0
ARC
  8
_0-0_0
  6
CONTINUOUS
 62
    7
 10
16416.1508226816
 20
10109.395394089019
 40
131.45422513355848
 50
318.94306905985007
 51
327.13431605177863
  0
ARC
  8
_0-0_0
  6
CONTINUOUS
 62
    7
 10
16416.1508226816
 20
10109.395394089019
 40
181.45422511355798
 50
318.94306905985007
 51
322.42685262725558
  0
ARC
  8
_0-0_0
  6
CONTINUOUS
 62
    7
 10
16416.1508226816
 20
10109.395394089019
 40
181.45422511355798
 50
339.12795671489192
 51
340.76648695516121
  0
ARC
  8
_0-0_0
  6
CONTINUOUS
 62
    7
 10
16511.433155597231
 20
9823.0483111033536
 40
142.6459226392987
 50
127.39952818600111
 51
195.92719492266943
  0
ARC
  8
_0-0_0
  6
CONTINUOUS
 62
    7
 10
16511.433155597231
 20
9823.0483111033536
 40
92.645922659299316
 50
127.67592269736632
 51
195.92719492266943
  0
ARC
  8
_0-0_0
  6
CONTINUOUS
 62
    7
 10
16565.841839144141
 20
9837.6211129749554
 40
198.96703980091331
 50
195.66306383231222
 51
227.54012039004013
  0
ARC
  8
_0-0_0
  6
CONTINUOUS
 62
    7
 10
16565.841839144141
 20
9837.6211129749554
 40
148.96703982091378
 50
195.66306383231222
 51
227.54012039004013
  0
ARC
  8
_0-0_0
  6
CONTINUOUS
 62
    7
 10
17352.544257512418
 20
10584.747396141611
 40
1283.495333169983
 50
224.14436546239429
 51
232.58569619400572
  0
ARC
  8
_0-0_0
  6
CONTINUOUS
 62
    7
 10
17362.898880183377
 20
10597.29755914168
 40
1249.7548075029811
 50
224.09084279958614
 51
232.55822830763719
  0
ARC
  8
_0-0_0
  6
CONTINUOUS
 62
    7
 10
16276.91839581736
 20
9219.3476600622707
 40
455.1868433660602
 50
42.75475195734036
 51
49.469025609598461
  0
ARC
  8
_0-0_0
  6
CONTINUOUS
 62
    7
 10
16295.25741243091
 20
9242.8794977596954
 40
475.31158645853509
 50
42.803732463561651
 51
49.63353733828103
  0
ARC
  8
_0-0_0
  6
CONTINUOUS
 62
    7
 10
16586.211824099228
 20
9506.6889967933057
 40
33.033794362664821
 50
328.11358560148165
 51
40.989507130472475
  0
ARC
  8
_0-0_0
  6
CONTINUOUS
 62
    7
 10
16587.275048812338
 20
9506.6430884238434
 40
81.984721733582731
 50
323.21422412334238
 51
46.232461795884944
  0
LINE
  8
_0-0_0
  6
CONTINUOUS
 62
    7
 10
16547.602907141219
 20
9365.7048357430722
 11
16547.602907141219
 21
9214.2071328709499
  0
LINE
  8
_0-0_0
  6
CONTINUOUS
 62
    7
 10
16547.602907141209
 20
10314.173799120939
 11
16547.602907141209
 21
10134.647627046199
  0
LINE
  8
_0-0_0
  6
CONTINUOUS
 62
    7
 10
16597.602907121211
 20
10314.173799120939
 11
16597.602907121211
 21
10197.70366565933
  0
ARC
  8
_0-0_0
  6
CONTINUOUS
 62
    7
 10
16877.41714045962
 20
9273.6019327188988
 40
340.22167303105346
 50
140.6678948815584
 51
148.56750202520618
  0
ARC
  8
_0-0_0
  6
CONTINUOUS
 62
    7
 10
16990.57920680393
 20
9255.6335017400688
 40
393.41242259672509
 50
149.12009463815232
 51
177.29759919153372
  0
ENDBLK
  0
ENDSEC
  0
SECTION
  2
ENTITIES
  0
INSERT
  2
-000-retet
  8
_0-0_0
 10
-1446.3707213467142
 20
-827.91904659959437
 41
0.1
 42
0.1
 50
0
  0
ENDSEC
  0
EOF
