  0
SECTION
  2
HEADER
  9
$ACADVER
  1
AC1009
  9
$INSBASE
 10
0
 20
0
 30
0
  9
$EXTMIN
 10
0
 20
0
  9
$EXTMAX
 10
420
 20
297
  9
$LIMMIN
 10
0
 20
0
  9
$LIMMAX
 10
420
 20
297
  9
$LTSCALE
 40
1
  0
ENDSEC
  0
SECTION
  2
TABLES
  0
TABLE
  2
LTYPE
 70
     9
  0
LTYPE
  2
CONTINUOUS
 70
    64
  3
実線
 72
    65
 73
     0
 40
0.0
  0
LTYPE
  2
DASHED1
 70
    64
  3
--  --  --  --  --  --  --  --  
 72
    65
 73
     2
 40
2.5
 49
1.25
 49
-1.25
  0
LTYPE
  2
DASHED2
 70
    64
  3
----    ----    ----    ----    
 72
    65
 73
     2
 40
5.0
 49
2.5
 49
-2.5
  0
LTYPE
  2
DASHED3
 70
    64
  3
------  ------  ------  ------  
 72
    65
 73
     2
 40
5.0
 49
3.75
 49
-1.25
  0
LTYPE
  2
CENTER1
 70
    64
  3
----- - ----- - ----- - ----- - 
 72
    65
 73
     4
 40
10.0
 49
6.25
 49
-1.25
 49
1.25
 49
-1.25
  0
LTYPE
  2
CENTER2
 70
    64
  3
----------  --  ----------  --  
 72
    65
 73
     4
 40
20.0
 49
12.5
 49
-2.5
 49
2.5
 49
-2.5
  0
LTYPE
  2
PHANTOM1
 70
    64
  3
--- - - --- - - --- - - --- - - 
 72
    65
 73
     6
 40
10.0
 49
3.25
 49
-1.25
 49
1.25
 49
-1.25
 49
1.25
 49
-1.25
  0
LTYPE
  2
PHANTOM2
 70
    64
  3
--------  -  -  --------  -  -  
 72
    65
 73
     6
 40
20.0
 49
10.0
 49
-2.5
 49
1.25
 49
-2.5
 49
1.25
 49
-2.5
  0
LTYPE
  2
DOT
 70
    64
  3
-   -   -   -   -   -   -   -   
 72
    65
 73
     2
 40
2.5
 49
0.625
 49
-1.875
  0
LTYPE
  2
DUMMY
 70
    64
  3
ダミー
 72
    65
 73
     0
 40
0.0
  0
LTYPE
  2
RAND1
 70
    64
  3
ランダム線1
 72
    65
 73
     4
 40
10.0
 49
1.0
 49
-2.0
 49
3.0
 49
-4.0
  0
LTYPE
  2
RAND2
 70
    64
  3
ランダム線2
 72
    65
 73
     4
 40
14.0
 49
2.0
 49
-3.0
 49
4.0
 49
-5.0
  0
LTYPE
  2
RAND3
 70
    64
  3
ランダム線3
 72
    65
 73
     4
 40
18.0
 49
3.0
 49
-4.0
 49
5.0
 49
-6.0
  0
LTYPE
  2
RAND4
 70
    64
  3
ランダム線4
 72
    65
 73
     4
 40
22.0
 49
4.0
 49
-5.0
 49
6.0
 49
-7.0
  0
LTYPE
  2
RAND5
 70
    64
  3
ランダム線5
 72
    65
 73
     4
 40
26.0
 49
5.0
 49
-6.0
 49
7.0
 49
-8.0
  0
LTYPE
  2
LONG1
 70
    64
  3
----------  --  ----------  --  
 72
    65
 73
     4
 40
40.0
 49
32.5
 49
-2.5
 49
2.5
 49
-2.5
  0
LTYPE
  2
LONG2
 70
    64
  3
--------  -  -  --------  -  -  
 72
    65
 73
     6
 40
40.0
 49
30.0
 49
-2.5
 49
1.25
 49
-2.5
 49
1.25
 49
-2.5
  0
LTYPE
  2
LONG3
 70
    64
  3
+++++++++++++++..+++++++++++++++
 72
    65
 73
     2
 40
40.0
 49
37.5
 49
-2.5
  0
LTYPE
  2
LONG4
 70
    64
  3
+++++++++++++++..+++++++++++++++
 72
    65
 73
     2
 40
80.0
 49
75.0
 49
-5.0
  0
LTYPE
  2
LONG5
 70
    64
  3
----------  --  ----------  --  
 72
    65
 73
     4
 40
60.0
 49
37.5
 49
-7.5
 49
7.5
 49
-7.5
  0
LTYPE
  2
dashed
 70
   64
  3
-------   -------------   ------
 72
   65
 73
    2
 40
7.5
 49
6
 49
-1.5
  0
LTYPE
  2
dashed_spaced
 70
   64
  3
----        --------        ----
 72
   65
 73
    2
 40
12
 49
6
 49
-6
  0
LTYPE
  2
long_dashed_dotted
 70
   64
  3
------------- --- --------------
 72
   65
 73
    4
 40
15.25
 49
12
 49
-1.5
 49
0.25
 49
-1.5
  0
LTYPE
  2
long_dashed_double-dotted
 70
   64
  3
----------- --- --- ------------
 72
   65
 73
    6
 40
17
 49
12
 49
-1.5
 49
0.25
 49
-1.5
 49
0.25
 49
-1.5
  0
LTYPE
  2
long_dashed_triplicate-dotted
 70
   64
  3
--------- --- --- --- ----------
 72
   65
 73
    8
 40
18.75
 49
12
 49
-1.5
 49
0.25
 49
-1.5
 49
0.25
 49
-1.5
 49
0.25
 49
-1.5
  0
LTYPE
  2
dotted
 70
   64
  3
   -       -       -       -    
 72
   65
 73
    2
 40
1.75
 49
0.25
 49
-1.5
  0
LTYPE
  2
chain
 70
   64
  3
-------------- -- --------------
 72
   65
 73
    4
 40
18.5
 49
12
 49
-1.5
 49
3.5
 49
-1.5
  0
LTYPE
  2
chain_double_dash
 70
   64
  3
------------ -- -- -------------
 72
   65
 73
    6
 40
23.5
 49
12
 49
-1.5
 49
3.5
 49
-1.5
 49
3.5
 49
-1.5
  0
LTYPE
  2
dashed_dotted
 70
   64
  3
-----------     -     ----------
 72
   65
 73
    4
 40
9.25
 49
6
 49
-1.5
 49
0.25
 49
-1.5
  0
LTYPE
  2
double-dashed_dotted
 70
   64
  3
------   -----------   -   -----
 72
   65
 73
    6
 40
16.75
 49
6
 49
-1.5
 49
6
 49
-1.5
 49
0.25
 49
-1.5
  0
LTYPE
  2
dashed_double-dotted
 70
   64
  3
---------    -    -    ---------
 72
   65
 73
    6
 40
11
 49
6
 49
-1.5
 49
0.25
 49
-1.5
 49
0.25
 49
-1.5
  0
LTYPE
  2
double-dashed_double-dotted
 70
   64
  3
-----   ---------   -   -   ----
 72
   65
 73
    8
 40
18.5
 49
6
 49
-1.5
 49
6
 49
-1.5
 49
0.25
 49
-1.5
 49
0.25
 49
-1.5
  0
LTYPE
  2
dashed_triplicate-dotted
 70
   64
  3
-------    -    -    -    ------
 72
   65
 73
    8
 40
12.75
 49
6
 49
-1.5
 49
0.25
 49
-1.5
 49
0.25
 49
-1.5
 49
0.25
 49
-1.5
  0
LTYPE
  2
double-dashed_triplicate-dotted
 70
   64
  3
-----  ---------  -  -  -  -----
 72
   65
 73
   10
 40
20.25
 49
6
 49
-1.5
 49
6
 49
-1.5
 49
0.25
 49
-1.5
 49
0.25
 49
-1.5
 49
0.25
 49
-1.5
  0
LTYPE
  2
undefined
 70
   64
  3
--------------------------------
 72
   65
 73
    0
 40
0
  0
LTYPE
  2
BORDER
 70
   64
  3
----     --------     -     ----
 72
   65
 73
    6
 40
1.76
 49
0.5
 49
-0.25
 49
0.5
 49
-0.25
 49
0.01
 49
-0.25
  0
LTYPE
  2
BORDER2
 70
   64
  3
----     --------     -     ----
 72
   65
 73
    6
 40
0.885
 49
0.25
 49
-0.125
 49
0.25
 49
-0.125
 49
0.01
 49
-0.125
  0
LTYPE
  2
BORDERX2
 70
   64
  3
----     --------     -     ----
 72
   65
 73
    6
 40
3.5099999999999998
 49
1
 49
-0.5
 49
1
 49
-0.5
 49
0.01
 49
-0.5
  0
LTYPE
  2
CENTER
 70
   64
  3
----------    ----    ----------
 72
   65
 73
    4
 40
2
 49
1.25
 49
-0.25
 49
0.25
 49
-0.25
  0
LTYPE
  2
CENTER2_21
 70
   64
  3
----------    ----    ----------
 72
   65
 73
    4
 40
1.125
 49
0.75
 49
-0.125
 49
0.125
 49
-0.125
  0
LTYPE
  2
CENTERX2
 70
   64
  3
----------    ----    ----------
 72
   65
 73
    4
 40
4
 49
2.5
 49
-0.5
 49
0.5
 49
-0.5
  0
LTYPE
  2
DASHDOT
 70
   64
  3
--------        -        -------
 72
   65
 73
    4
 40
1.01
 49
0.5
 49
-0.25
 49
0.01
 49
-0.25
  0
LTYPE
  2
DASHDOT2
 70
   64
  3
--------        -        -------
 72
   65
 73
    4
 40
0.51
 49
0.25
 49
-0.125
 49
0.01
 49
-0.125
  0
LTYPE
  2
DASHDOTX2
 70
   64
  3
--------        -        -------
 72
   65
 73
    4
 40
2.0099999999999998
 49
1
 49
-0.5
 49
0.01
 49
-0.5
  0
LTYPE
  2
DASHED
 70
   64
  3
------     -----------     -----
 72
   65
 73
    2
 40
0.75
 49
0.5
 49
-0.25
  0
LTYPE
  2
DASHED2_27
 70
   64
  3
------     -----------     -----
 72
   65
 73
    2
 40
0.375
 49
0.25
 49
-0.125
  0
LTYPE
  2
DASHEDX2
 70
   64
  3
------     -----------     -----
 72
   65
 73
    2
 40
1.5
 49
1
 49
-0.5
  0
LTYPE
  2
DIVIDE
 70
   64
  3
------      -      -      ------
 72
   65
 73
    6
 40
1.27
 49
0.5
 49
-0.25
 49
0.01
 49
-0.25
 49
0.01
 49
-0.25
  0
LTYPE
  2
DIVIDE2
 70
   64
  3
------      -      -      ------
 72
   65
 73
    6
 40
0.645
 49
0.25
 49
-0.125
 49
0.01
 49
-0.125
 49
0.01
 49
-0.125
  0
LTYPE
  2
DIVIDEX2
 70
   64
  3
------      -      -      ------
 72
   65
 73
    6
 40
2.5199999999999996
 49
1
 49
-0.5
 49
0.01
 49
-0.5
 49
0.01
 49
-0.5
  0
LTYPE
  2
DOT_32
 70
   64
  3
-               -               
 72
   65
 73
    2
 40
0.26
 49
0.01
 49
-0.25
  0
ENDTAB
  0
TABLE
  2
STYLE
  5
3
100
AcDbSymbolTable
 70
     1
  0
STYLE
  5
10
100
AcDbSymbolTableRecord
100
AcDbTextStyleTableRecord
  2
STANDARD
 70
     0
 40
0.0
 41
1.0
 50
0.0
 71
     0
 42
0.2
  3
txt
  4
bigfont.shx
  0
STYLE
  5
26
100
AcDbSymbolTableRecord
100
AcDbTextStyleTableRecord
  2
TATEGAKI
 70
    68
 40
0.0
 41
1.0
 50
0.0
 71
     0
 42
1.0
  3
txt
  4
bigfont.shx
  0
ENDTAB
  0
TABLE
  2
LAYER
 70
    2
  0
LAYER
  2
_0-0_0
 70
   64
 62
    7
  6
CONTINUOUS
  0
LAYER
  2
ADD_LINE
 70
   64
 62
    7
  6
CONTINUOUS
  0
ENDTAB
  0
ENDSEC
  0
SECTION
  2
BLOCKS
  0
BLOCK
  2
-000-fdgrzrzt
 70
   64
 10
0
 20
0
 30
0
  0
LINE
  8
_0-0_0
  6
CONTINUOUS
 62
    7
 10
8148.7963933545298
 20
5212.1482028413293
 11
8148.7963933545298
 21
5116.6566205569698
  0
LINE
  8
_0-0_0
  6
CONTINUOUS
 62
    7
 10
8218.7963933745286
 20
5212.1482028413293
 11
8218.7963933745286
 21
5153.0991093763696
  0
ARC
  8
_0-0_0
  6
CONTINUOUS
 62
    7
 10
8053.460337354124
 20
5152.3790906707591
 40
95.533588716727792
 50
300.18539495470668
 51
356.31486024917359
  0
ARC
  8
_0-0_0
  6
CONTINUOUS
 62
    7
 10
8053.2391478386198
 20
5152.6064038126196
 40
130.84131549310234
 50
300.21907139849259
 51
321.29342360604858
  0
ARC
  8
_0-0_0
  6
CONTINUOUS
 62
    7
 10
8145.6303206864504
 20
4997.0712583073027
 40
50.08303248821715
 50
121.99700610910571
 51
223.19652109837682
  0
ARC
  8
_0-0_0
  6
CONTINUOUS
 62
    7
 10
8145.5661076297138
 20
4997.0991353911795
 40
85.015598202706045
 50
121.2245400331494
 51
224.73473164182511
  0
ARC
  8
_0-0_0
  6
CONTINUOUS
 62
    7
 10
8370.446251907124
 20
5241.3627329760147
 40
416.96198115588004
 50
226.82962375834271
 51
242.72656816135151
  0
ARC
  8
_0-0_0
  6
CONTINUOUS
 62
    7
 10
8371.8638921942002
 20
5243.1011707982298
 40
384.19980147330909
 50
226.85280907004289
 51
242.41624433269766
  0
ARC
  8
_0-0_0
  6
CONTINUOUS
 62
    7
 10
7879.0626001782148
 20
4215.5529109209374
 40
720.74880960928544
 50
56.896358578206261
 51
65.375327308617187
  0
ARC
  8
_0-0_0
  6
CONTINUOUS
 62
    7
 10
7879.0626001782148
 20
4215.5529109209374
 40
755.74880961928557
 50
56.896358578206261
 51
65.375327308617187
  0
ARC
  8
_0-0_0
  6
CONTINUOUS
 62
    7
 10
8250.4382419275298
 20
4776.1796130995599
 40
48.540634824374727
 50
292.98271267262157
 51
62.69743808687258
  0
ARC
  8
_0-0_0
  6
CONTINUOUS
 62
    7
 10
8250.4948401416241
 20
4776.2126450371188
 40
83.48532916448309
 50
291.00696459346437
 51
60.163111865498081
  0
ARC
  8
_0-0_0
  6
CONTINUOUS
 62
    7
 10
8324.8419161161492
 20
4564.5316444393311
 40
175.92769706687955
 50
108.37234217202221
 51
113.54285547410852
  0
ARC
  8
_0-0_0
  6
CONTINUOUS
 62
    7
 10
8324.8419161161492
 20
4564.5316444393311
 40
175.92769706687955
 50
124.96641216959088
 51
144.41122284103849
  0
ARC
  8
_0-0_0
  6
CONTINUOUS
 62
    7
 10
8324.8419161161492
 20
4564.5316444393311
 40
175.92769706687955
 50
155.92505894957881
 51
157.61974480996042
  0
ARC
  8
_0-0_0
  6
CONTINUOUS
 62
    7
 10
8324.8419161161492
 20
4564.5316444393311
 40
175.92769706687955
 50
180.1917675264977
 51
180.52552384236139
  0
ARC
  8
_0-0_0
  6
CONTINUOUS
 62
    7
 10
8324.8419161161492
 20
4564.5316444393311
 40
140.92769705687948
 50
108.37234217202221
 51
114.1541942721356
  0
ARC
  8
_0-0_0
  6
CONTINUOUS
 62
    7
 10
8324.8419161161492
 20
4564.5316444393311
 40
140.92769705687948
 50
130.71827941271724
 51
147.37521909934924
  0
LINE
  8
_0-0_0
  6
CONTINUOUS
 62
    7
 10
8148.7963933545298
 20
4558.4107510639087
 11
8148.7963933545298
 21
4487.1315359663349
  0
LINE
  8
_0-0_0
  6
CONTINUOUS
 62
    7
 10
8218.7963933745286
 20
4592.8441477788483
 11
8218.7963933745286
 21
4487.1315359663367
  0
ARC
  8
_0-0_0
  6
CONTINUOUS
 62
    7
 10
8281.1532859774434
 20
5112.1430628273747
 40
132.43382962133464
 50
178.04688952971341
 51
213.44986197795001
  0
ARC
  8
_0-0_0
  6
CONTINUOUS
 62
    7
 10
8282.5294884030554
 20
5112.2431028179199
 40
98.787669234304488
 50
181.904583109291
 51
211.5530795926353
  0
ARC
  8
_0-0_0
  6
CONTINUOUS
 62
    7
 10
8441.2287523161849
 20
5248.2778543917693
 40
306.97521970872316
 50
217.70130437648979
 51
244.82260775491304
  0
ARC
  8
_0-0_0
  6
CONTINUOUS
 62
    7
 10
8441.1610135668489
 20
5248.211330385554
 40
341.88094192608264
 50
217.69942583893751
 51
244.72145840484453
  0
ARC
  8
_0-0_0
  6
CONTINUOUS
 62
    7
 10
8258.4007519193583
 20
4906.3038931923393
 40
66.850551057255544
 50
300.29173425099083
 51
326.98658433455142
  0
ARC
  8
_0-0_0
  6
CONTINUOUS
 62
    7
 10
8258.4007519193583
 20
4906.3038931923393
 40
101.85055106725559
 50
306.34554237814012
 51
326.98658433455142
  0
ARC
  8
_0-0_0
  6
CONTINUOUS
 62
    7
 10
8273.0782341113445
 20
4895.6278524926902
 40
48.735533729593094
 50
328.10999589972363
 51
63.042780190568635
  0
ARC
  8
_0-0_0
  6
CONTINUOUS
 62
    7
 10
8273.0832755304291
 20
4895.6319802548378
 40
83.72956911767595
 50
327.63619981806738
 51
63.044574705787284
  0
ARC
  8
_0-0_0
  6
CONTINUOUS
 62
    7
 10
8693.511588653284
 20
4070.7003892106336
 40
840.25104622538697
 50
118.84262103143131
 51
124.74454861473569
  0
ARC
  8
_0-0_0
  6
CONTINUOUS
 62
    7
 10
8693.511588653284
 20
4070.7003892106336
 40
875.25104623538687
 50
119.92010540101961
 51
125.93998865441641
  0
ARC
  8
_0-0_0
  6
CONTINUOUS
 62
    7
 10
8272.4441303668991
 20
4652.7025694295598
 40
156.96740138808158
 50
139.85442875454478
 51
161.26010793515326
  0
ARC
  8
_0-0_0
  6
CONTINUOUS
 62
    7
 10
8272.4441303668991
 20
4652.7025694295598
 40
121.96740137808153
 50
135.7805764865017
 51
165.35692290511321
  0
ARC
  8
_0-0_0
  6
CONTINUOUS
 62
    7
 10
8233.1333981487987
 20
4669.9486992540524
 40
115.72902522128929
 50
182.23930426406019
 51
213.39895802454859
  0
ARC
  8
_0-0_0
  6
CONTINUOUS
 62
    7
 10
8235.1536702661087
 20
4670.8414625222167
 40
82.907911948103603
 50
201.29246028966674
 51
213.14549782819833
  0
ARC
  8
_0-0_0
  6
CONTINUOUS
 62
    7
 10
8067.0618854545955
 20
4562.9180368786474
 40
81.859733748725546
 50
356.84363593213561
 51
31.956077863058738
  0
ARC
  8
_0-0_0
  6
CONTINUOUS
 62
    7
 10
8057.5350549277046
 20
4559.4767380219118
 40
126.75916368429834
 50
5.0795898194624316
 51
31.395058373629077
  0
LINE
  8
_0-0_0
  6
CONTINUOUS
 62
    7
 10
8148.7963933545243
 20
5212.1482028413247
 11
8218.7963933745286
 21
5212.1482028413293
  0
ARC
  8
_0-0_0
  6
CONTINUOUS
 62
    7
 10
8433.2733985390641
 20
5162.6154192978292
 40
249.68729439431362
 50
182.48476850115259
 51
209.05207936015722
  0
ARC
  8
_0-0_0
  6
CONTINUOUS
 62
    7
 10
8433.2733985390641
 20
5162.6154192978292
 40
214.68729438431359
 50
182.48476850115259
 51
209.05207936015722
  0
ARC
  8
_0-0_0
  6
CONTINUOUS
 62
    7
 10
8138.2575841864245
 20
4781.4522971484594
 40
67.389814413664595
 50
125.66582633353261
 51
131.31282308071363
  0
ARC
  8
_0-0_0
  6
CONTINUOUS
 62
    7
 10
8138.2575841864245
 20
4781.4522971484594
 40
67.389814413664595
 50
161.46638300845001
 51
196.73727622629281
  0
ARC
  8
_0-0_0
  6
CONTINUOUS
 62
    7
 10
8137.7262273495899
 20
4781.8464330254028
 40
101.759995128808
 50
125.55215391920332
 51
134.60727978296489
  0
ARC
  8
_0-0_0
  6
CONTINUOUS
 62
    7
 10
8137.7262273495899
 20
4781.8464330254028
 40
101.759995128808
 50
154.4965326665839
 51
200.01030682122453
  0
ARC
  8
_0-0_0
  6
CONTINUOUS
 62
    7
 10
8209.6166707104148
 20
4826.6099499432403
 40
185.45192625882024
 50
205.4129421804312
 51
234.09056970442461
  0
ARC
  8
_0-0_0
  6
CONTINUOUS
 62
    7
 10
8209.6166707104148
 20
4826.6099499432403
 40
150.45192624882026
 50
205.4129421804312
 51
234.09056970442461
  0
ARC
  8
_0-0_0
  6
CONTINUOUS
 62
    7
 10
8645.0921642393896
 20
5483.5254965904796
 40
973.47143875575887
 50
236.00810860546142
 51
240.04211950529935
  0
ARC
  8
_0-0_0
  6
CONTINUOUS
 62
    7
 10
8654.1707002269286
 20
5498.6548177137747
 40
956.11291008200647
 50
236.13409702886077
 51
240.0235095076921
  0
ARC
  8
_0-0_0
  6
CONTINUOUS
 62
    7
 10
8130.1969205793202
 20
4594.8485765271635
 40
88.622143475521256
 50
358.7039909318554
 51
58.536257938165761
  0
ARC
  8
_0-0_0
  6
CONTINUOUS
 62
    7
 10
8139.8043448208291
 20
4608.2972551790908
 40
37.149100527556676
 50
351.84544913690468
 51
58.930201537856533
  0
LINE
  8
_0-0_0
  6
CONTINUOUS
 62
    7
 10
8148.7963933545298
 20
4487.1315359663349
 11
8218.7963933745286
 21
4487.1315359663367
  0
ARC
  8
_0-0_0
  6
CONTINUOUS
 62
    7
 10
8039.0391357864046
 20
5124.8070820641697
 40
146.02266562004161
 50
292.95963359676358
 51
329.08600883905501
  0
ARC
  8
_0-0_0
  6
CONTINUOUS
 62
    7
 10
8039.0391357864046
 20
5124.8070820641697
 40
146.02266562004161
 50
352.79615641486822
 51
7.5484349304333023
  0
ARC
  8
_0-0_0
  6
CONTINUOUS
 62
    7
 10
8038.4483046914702
 20
5126.1181562990741
 40
182.35516148600917
 50
294.00535996736738
 51
324.37801802478839
  0
ARC
  8
_0-0_0
  6
CONTINUOUS
 62
    7
 10
8038.4483046914702
 20
5126.1181562990741
 40
182.35516148600917
 50
336.05583099480418
 51
337.65916829234618
  0
ARC
  8
_0-0_0
  6
CONTINUOUS
 62
    7
 10
8038.4483046914702
 20
5126.1181562990741
 40
182.35516148600917
 50
8.5064302057846533
 51
8.5086234432884016
  0
ARC
  8
_0-0_0
  6
CONTINUOUS
 62
    7
 10
8100.8288256038595
 20
4897.0632511515059
 40
55.042539943161998
 50
115.5550132315995
 51
225.49933361470553
  0
ARC
  8
_0-0_0
  6
CONTINUOUS
 62
    7
 10
8100.7508752907343
 20
4897.0715733577899
 40
89.964742079760541
 50
115.09177474061693
 51
226.72632166676163
  0
ARC
  8
_0-0_0
  6
CONTINUOUS
 62
    7
 10
8410.4876785052948
 20
5252.1635824426503
 40
526.10789354404551
 50
228.5538520056993
 51
245.0778539904604
  0
ARC
  8
_0-0_0
  6
CONTINUOUS
 62
    7
 10
8410.4876785052948
 20
5252.1635824426503
 40
561.1078935540454
 50
228.5538520056993
 51
245.0778539904604
  0
ARC
  8
_0-0_0
  6
CONTINUOUS
 62
    7
 10
8075.8605277010201
 20
4534.2707424257151
 40
265.94467472013378
 50
52.186821481637928
 51
64.87171509952617
  0
ARC
  8
_0-0_0
  6
CONTINUOUS
 62
    7
 10
8070.653964891585
 20
4524.6009071422504
 40
241.91106095187024
 50
53.227466495049462
 51
64.727819111143162
  0
ARC
  8
_0-0_0
  6
CONTINUOUS
 62
    7
 10
8183.5988630141646
 20
4680.4374464667235
 40
84.537532514060587
 50
327.47999022395481
 51
49.136585029464641
  0
ARC
  8
_0-0_0
  6
CONTINUOUS
 62
    7
 10
8180.10142887648
 20
4678.513780434916
 40
53.292122595261304
 50
326.85745246646383
 51
48.417167470960294
  0
LINE
  8
_0-0_0
  6
CONTINUOUS
 62
    7
 10
8183.7963933645342
 20
4570.6999280355494
 11
8183.7963933645342
 21
4487.1315359663349
  0
LINE
  8
_0-0_0
  6
CONTINUOUS
 62
    7
 10
8183.7963933645296
 20
5212.1482028413293
 11
8183.7963933645296
 21
5108.9598823168299
  0
LINE
  8
_0-0_0
  6
CONTINUOUS
 62
    7
 10
8218.7963933745286
 20
5212.1482028413293
 11
8218.7963933745286
 21
5153.0991093762896
  0
ARC
  8
_0-0_0
  6
CONTINUOUS
 62
    7
 10
8317.8820034127348
 20
4570.0633544966031
 40
122.34889288397285
 50
139.58917825700664
 51
150.43892296447794
  0
ARC
  8
_0-0_0
  6
CONTINUOUS
 62
    7
 10
8413.08776515918
 20
4513.9594457255662
 40
199.19297352303161
 50
142.58329880515913
 51
167.26181489632839
  0
ARC
  8
_0-0_0
  6
CONTINUOUS
 62
    7
 10
8140.6426887326943
 20
5001.6151062625149
 40
84.354816962505097
 50
299.73309675130179
 51
348.46165423811232
  0
ARC
  8
_0-0_0
  6
CONTINUOUS
 62
    7
 10
8140.7366348286405
 20
5001.5735171064298
 40
84.25445346156765
 50
27.138094071961518
 51
28.18313696143975
  0
ARC
  8
_0-0_0
  6
CONTINUOUS
 62
    7
 10
8140.7366348286405
 20
5001.5735171064298
 40
119.2544534715677
 50
300.68778734629836
 51
340.8735391743557
  0
ARC
  8
_0-0_0
  6
CONTINUOUS
 62
    7
 10
8140.7366348286405
 20
5001.5735171064298
 40
119.2544534715677
 50
359.49281646532171
 51
28.183136961439686
  0
ARC
  8
_0-0_0
  6
CONTINUOUS
 62
    7
 10
8586.9659910063547
 20
4152.1863014649116
 40
840.25104622543495
 50
120.1636753011465
 51
125.50537969099851
  0
ARC
  8
_0-0_0
  6
CONTINUOUS
 62
    7
 10
8586.9526252588093
 20
4152.2099059177281
 40
875.22393679811341
 50
117.52508506191332
 51
118.80161161533341
  0
ARC
  8
_0-0_0
  6
CONTINUOUS
 62
    7
 10
8586.9526252588093
 20
4152.2099059177281
 40
875.22393679811341
 50
121.35413537509882
 51
125.5119810680214
  0
ENDBLK
  0
ENDSEC
  0
SECTION
  2
ENTITIES
  0
INSERT
  2
-000-fdgrzrzt
  8
_0-0_0
 10
-1426.7421153572297
 20
-821.42797388076656
 41
0.2
 42
0.2
 50
0
  0
ENDSEC
  0
EOF
