  0
SECTION
  2
HEADER
  9
$ACADVER
  1
AC1015
  9
$ACADMAINTVER
 70
    20
  9
$DWGCODEPAGE
  3
ANSI_1252
  9
$INSBASE
 10
0.4191336899106375
 20
0.082094608267667
 30
0.0
  9
$EXTMIN
 10
-20.04130346999682
 20
-16.66701147833806
 30
0.0
  9
$EXTMAX
 10
27.25081114151003
 20
39.96250672443824
 30
0.0
  9
$LIMMIN
 10
-165.80576
 20
-105.1
  9
$LIMMAX
 10
165.80576
 20
105.1
  9
$ORTHOMODE
 70
     0
  9
$REGENMODE
 70
     1
  9
$FILLMODE
 70
     1
  9
$QTEXTMODE
 70
     0
  9
$MIRRTEXT
 70
     1
  9
$LTSCALE
 40
1.0
  9
$ATTMODE
 70
     1
  9
$TEXTSIZE
 40
0.2
  9
$TRACEWID
 40
0.05
  9
$TEXTSTYLE
  7
STANDARD
  9
$CLAYER
  8
P-0000
  9
$CELTYPE
  6
CONTINUOUS
  9
$CECOLOR
 62
   256
  9
$CELTSCALE
 40
1.0
  9
$DISPSILH
 70
     0
  9
$DIMSCALE
 40
1.0
  9
$DIMASZ
 40
3.0
  9
$DIMEXO
 40
1.0
  9
$DIMDLI
 40
10.0
  9
$DIMRND
 40
0.0
  9
$DIMDLE
 40
0.0
  9
$DIMEXE
 40
0.5
  9
$DIMTP
 40
0.0
  9
$DIMTM
 40
0.0
  9
$DIMTXT
 40
3.0
  9
$DIMCEN
 40
0.0
  9
$DIMTSZ
 40
0.0
  9
$DIMTOL
 70
     0
  9
$DIMLIM
 70
     0
  9
$DIMTIH
 70
     0
  9
$DIMTOH
 70
     0
  9
$DIMSE1
 70
     0
  9
$DIMSE2
 70
     0
  9
$DIMTAD
 70
     1
  9
$DIMZIN
 70
     8
  9
$DIMBLK
  1

  9
$DIMASO
 70
     1
  9
$DIMSHO
 70
     1
  9
$DIMPOST
  1

  9
$DIMAPOST
  1

  9
$DIMALT
 70
     0
  9
$DIMALTD
 70
     2
  9
$DIMALTF
 40
25.4
  9
$DIMLFAC
 40
1.0
  9
$DIMTOFL
 70
     1
  9
$DIMTVP
 40
0.0
  9
$DIMTIX
 70
     1
  9
$DIMSOXD
 70
     0
  9
$DIMSAH
 70
     0
  9
$DIMBLK1
  1

  9
$DIMBLK2
  1

  9
$DIMSTYLE
  2
ACADTOP
  9
$DIMCLRD
 70
     3
  9
$DIMCLRE
 70
     3
  9
$DIMCLRT
 70
     6
  9
$DIMTFAC
 40
0.7
  9
$DIMGAP
 40
1.5
  9
$DIMJUST
 70
     0
  9
$DIMSD1
 70
     0
  9
$DIMSD2
 70
     0
  9
$DIMTOLJ
 70
     1
  9
$DIMTZIN
 70
     8
  9
$DIMALTZ
 70
     0
  9
$DIMALTTZ
 70
     0
  9
$DIMUPT
 70
     0
  9
$DIMDEC
 70
     2
  9
$DIMTDEC
 70
     2
  9
$DIMALTU
 70
     2
  9
$DIMALTTD
 70
     2
  9
$DIMTXSTY
  7
ROMANS
  9
$DIMAUNIT
 70
     0
  9
$DIMADEC
 70
     2
  9
$DIMALTRND
 40
0.0
  9
$DIMAZIN
 70
     2
  9
$DIMDSEP
 70
    46
  9
$DIMATFIT
 70
     0
  9
$DIMFRAC
 70
     0
  9
$DIMLDRBLK
  1

  9
$DIMLUNIT
 70
     2
  9
$DIMLWD
 70
    -2
  9
$DIMLWE
 70
    -2
  9
$DIMTMOVE
 70
     0
  9
$LUNITS
 70
     2
  9
$LUPREC
 70
     4
  9
$SKETCHINC
 40
0.1
  9
$FILLETRAD
 40
0.0
  9
$AUNITS
 70
     0
  9
$AUPREC
 70
     0
  9
$MENU
  1
.
  9
$ELEVATION
 40
0.0
  9
$PELEVATION
 40
0.0
  9
$THICKNESS
 40
0.0
  9
$LIMCHECK
 70
     0
  9
$CHAMFERA
 40
0.0
  9
$CHAMFERB
 40
0.0
  9
$CHAMFERC
 40
0.0
  9
$CHAMFERD
 40
0.0
  9
$SKPOLY
 70
     0
  9
$TDCREATE
 40
2451197.606995451
  9
$TDUCREATE
 40
2451197.565328785
  9
$TDUPDATE
 40
2455131.693922674
  9
$TDUUPDATE
 40
2455131.652256007
  9
$TDINDWG
 40
0.0016156019
  9
$TDUSRTIMER
 40
0.0016156019
  9
$USRTIMER
 70
     1
  9
$ANGBASE
 50
0.0
  9
$ANGDIR
 70
     0
  9
$PDMODE
 70
     0
  9
$PDSIZE
 40
0.0
  9
$PLINEWID
 40
0.0
  9
$SPLFRAME
 70
     0
  9
$SPLINETYPE
 70
     6
  9
$SPLINESEGS
 70
     8
  9
$HANDSEED
  5
2DF
  9
$SURFTAB1
 70
     6
  9
$SURFTAB2
 70
     6
  9
$SURFTYPE
 70
     6
  9
$SURFU
 70
     6
  9
$SURFV
 70
     6
  9
$UCSBASE
  2

  9
$UCSNAME
  2

  9
$UCSORG
 10
0.0
 20
0.0
 30
0.0
  9
$UCSXDIR
 10
1.0
 20
0.0
 30
0.0
  9
$UCSYDIR
 10
0.0
 20
1.0
 30
0.0
  9
$UCSORTHOREF
  2

  9
$UCSORTHOVIEW
 70
     0
  9
$UCSORGTOP
 10
0.0
 20
0.0
 30
0.0
  9
$UCSORGBOTTOM
 10
0.0
 20
0.0
 30
0.0
  9
$UCSORGLEFT
 10
0.0
 20
0.0
 30
0.0
  9
$UCSORGRIGHT
 10
0.0
 20
0.0
 30
0.0
  9
$UCSORGFRONT
 10
0.0
 20
0.0
 30
0.0
  9
$UCSORGBACK
 10
0.0
 20
0.0
 30
0.0
  9
$PUCSBASE
  2

  9
$PUCSNAME
  2

  9
$PUCSORG
 10
0.0
 20
0.0
 30
0.0
  9
$PUCSXDIR
 10
1.0
 20
0.0
 30
0.0
  9
$PUCSYDIR
 10
0.0
 20
1.0
 30
0.0
  9
$PUCSORTHOREF
  2

  9
$PUCSORTHOVIEW
 70
     0
  9
$PUCSORGTOP
 10
0.0
 20
0.0
 30
0.0
  9
$PUCSORGBOTTOM
 10
0.0
 20
0.0
 30
0.0
  9
$PUCSORGLEFT
 10
0.0
 20
0.0
 30
0.0
  9
$PUCSORGRIGHT
 10
0.0
 20
0.0
 30
0.0
  9
$PUCSORGFRONT
 10
0.0
 20
0.0
 30
0.0
  9
$PUCSORGBACK
 10
0.0
 20
0.0
 30
0.0
  9
$USERI1
 70
     0
  9
$USERI2
 70
     0
  9
$USERI3
 70
     0
  9
$USERI4
 70
     0
  9
$USERI5
 70
     0
  9
$USERR1
 40
0.0
  9
$USERR2
 40
0.0
  9
$USERR3
 40
0.0
  9
$USERR4
 40
0.0
  9
$USERR5
 40
0.0
  9
$WORLDVIEW
 70
     1
  9
$SHADEDGE
 70
     3
  9
$SHADEDIF
 70
    70
  9
$TILEMODE
 70
     1
  9
$MAXACTVP
 70
    48
  9
$PINSBASE
 10
0.0
 20
0.0
 30
0.0
  9
$PLIMCHECK
 70
     0
  9
$PEXTMIN
 10
1.000000000000000E+20
 20
1.000000000000000E+20
 30
1.000000000000000E+20
  9
$PEXTMAX
 10
-1.000000000000000E+20
 20
-1.000000000000000E+20
 30
-1.000000000000000E+20
  9
$PLIMMIN
 10
0.0
 20
0.0
  9
$PLIMMAX
 10
12.0
 20
9.0
  9
$UNITMODE
 70
     0
  9
$VISRETAIN
 70
     1
  9
$PLINEGEN
 70
     0
  9
$PSLTSCALE
 70
     1
  9
$TREEDEPTH
 70
  3020
  9
$CMLSTYLE
  2
STANDARD
  9
$CMLJUST
 70
     0
  9
$CMLSCALE
 40
1.0
  9
$PROXYGRAPHICS
 70
     1
  9
$MEASUREMENT
 70
     0
  9
$CELWEIGHT
370
    -1
  9
$ENDCAPS
280
     0
  9
$JOINSTYLE
280
     0
  9
$LWDISPLAY
290
     0
  9
$INSUNITS
 70
     0
  9
$HYPERLINKBASE
  1

  9
$STYLESHEET
  1

  9
$XEDIT
290
     1
  9
$CEPSNTYPE
380
     0
  9
$PSTYLEMODE
290
     1
  9
$FINGERPRINTGUID
  2
{4EB7E17B-04AB-4E75-8D3D-39F94F3EA5F5}
  9
$VERSIONGUID
  2
{36262A6C-CF73-4E15-B408-EC745889F1BA}
  9
$EXTNAMES
290
     1
  9
$PSVPSCALE
 40
0.0
  9
$OLESTARTUP
290
     0
  0
ENDSEC
  0
SECTION
  2
CLASSES
  0
CLASS
  1
ACDBDICTIONARYWDFLT
  2
AcDbDictionaryWithDefault
  3
ObjectDBX Classes
 90
        0
280
     0
281
     0
  0
CLASS
  1
MATERIAL
  2
AcDbMaterial
  3
ObjectDBX Classes
 90
     1153
280
     0
281
     0
  0
CLASS
  1
VISUALSTYLE
  2
AcDbVisualStyle
  3
ObjectDBX Classes
 90
     4095
280
     0
281
     0
  0
CLASS
  1
TABLESTYLE
  2
AcDbTableStyle
  3
ObjectDBX Classes
 90
     4095
280
     0
281
     0
  0
CLASS
  1
SCALE
  2
AcDbScale
  3
ObjectDBX Classes
 90
     1153
280
     0
281
     0
  0
CLASS
  1
MLEADERSTYLE
  2
AcDbMLeaderStyle
  3
ACDB_MLEADERSTYLE_CLASS
 90
     4095
280
     0
281
     0
  0
CLASS
  1
ACDBQSCATEGORY
  2
AcQsCategory
  3
categories
 90
     1024
280
     0
281
     0
  0
CLASS
  1
SORTENTSTABLE
  2
AcDbSortentsTable
  3
ObjectDBX Classes
 90
        0
280
     0
281
     0
  0
CLASS
  1
CELLSTYLEMAP
  2
AcDbCellStyleMap
  3
ObjectDBX Classes
 90
     1152
280
     0
281
     0
  0
CLASS
  1
DICTIONARYVAR
  2
AcDbDictionaryVar
  3
ObjectDBX Classes
 90
        0
280
     0
281
     0
  0
CLASS
  1
ACDBPLACEHOLDER
  2
AcDbPlaceHolder
  3
ObjectDBX Classes
 90
        0
280
     0
281
     0
  0
CLASS
  1
LAYOUT
  2
AcDbLayout
  3
ObjectDBX Classes
 90
        0
280
     0
281
     0
  0
ENDSEC
  0
SECTION
  2
TABLES
  0
TABLE
  2
VPORT
  5
8
330
0
100
AcDbSymbolTable
 70
     1
  0
VPORT
  5
203
330
8
100
AcDbSymbolTableRecord
100
AcDbViewportTableRecord
  2
*ACTIVE
 70
     0
 10
0.0
 20
0.0
 11
1.0
 21
1.0
 12
3.605243818282473
 22
13.04021609915491
 13
0.0
 23
0.0
 14
1.0
 24
1.0
 15
0.0
 25
0.0
 16
0.0
 26
0.0
 36
1.0
 17
0.0
 27
0.0
 37
0.0
 40
66.44889533045475
 41
1.698749999999999
 42
50.0
 43
0.0
 44
0.0
 50
0.0
 51
0.0
 71
     0
 72
   100
 73
     1
 74
     1
 75
     0
 76
     0
 77
     0
 78
     0
281
     0
 65
     1
110
0.0
120
0.0
130
0.0
111
1.0
121
0.0
131
0.0
112
0.0
122
1.0
132
0.0
 79
     0
146
0.0
  0
ENDTAB
  0
TABLE
  2
LTYPE
  5
5
330
0
100
AcDbSymbolTable
 70
    29
  0
LTYPE
  5
12
330
5
100
AcDbSymbolTableRecord
100
AcDbLinetypeTableRecord
  2
BYBLOCK
 70
     0
  3

 72
    65
 73
     0
 40
0.0
  0
LTYPE
  5
13
330
5
100
AcDbSymbolTableRecord
100
AcDbLinetypeTableRecord
  2
BYLAYER
 70
     0
  3

 72
    65
 73
     0
 40
0.0
  0
LTYPE
  5
14
330
5
100
AcDbSymbolTableRecord
100
AcDbLinetypeTableRecord
  2
CONTINUOUS
 70
     0
  3
Solid line
 72
    65
 73
     0
 40
0.0
  0
LTYPE
  5
26C
330
5
100
AcDbSymbolTableRecord
100
AcDbLinetypeTableRecord
  2
BORDER
 70
     0
  3
Border __ __ . __ __ . __ __ . __ __ . __ __ .
 72
    65
 73
     6
 40
1.75
 49
0.5
 74
     0
 49
-0.25
 74
     0
 49
0.5
 74
     0
 49
-0.25
 74
     0
 49
0.0
 74
     0
 49
-0.25
 74
     0
  0
LTYPE
  5
26D
330
5
100
AcDbSymbolTableRecord
100
AcDbLinetypeTableRecord
  2
BORDER2
 70
     0
  3
Border (.5x) __.__.__.__.__.__.__.__.__.__.__.
 72
    65
 73
     6
 40
0.875
 49
0.25
 74
     0
 49
-0.125
 74
     0
 49
0.25
 74
     0
 49
-0.125
 74
     0
 49
0.0
 74
     0
 49
-0.125
 74
     0
  0
LTYPE
  5
26E
330
5
100
AcDbSymbolTableRecord
100
AcDbLinetypeTableRecord
  2
BORDERX2
 70
     0
  3
Border (2x) ____  ____  .  ____  ____  .  ___
 72
    65
 73
     6
 40
3.5
 49
1.0
 74
     0
 49
-0.5
 74
     0
 49
1.0
 74
     0
 49
-0.5
 74
     0
 49
0.0
 74
     0
 49
-0.5
 74
     0
  0
LTYPE
  5
26F
330
5
100
AcDbSymbolTableRecord
100
AcDbLinetypeTableRecord
  2
CENTER
 70
     0
  3
Center ____ _ ____ _ ____ _ ____ _ ____ _ ____
 72
    65
 73
     4
 40
2.0
 49
1.25
 74
     0
 49
-0.25
 74
     0
 49
0.25
 74
     0
 49
-0.25
 74
     0
  0
LTYPE
  5
270
330
5
100
AcDbSymbolTableRecord
100
AcDbLinetypeTableRecord
  2
CENTER2
 70
     0
  3
Center (.5x) ___ _ ___ _ ___ _ ___ _ ___ _ ___
 72
    65
 73
     4
 40
1.125
 49
0.75
 74
     0
 49
-0.125
 74
     0
 49
0.125
 74
     0
 49
-0.125
 74
     0
  0
LTYPE
  5
271
330
5
100
AcDbSymbolTableRecord
100
AcDbLinetypeTableRecord
  2
CENTERX2
 70
     0
  3
Center (2x) ________  __  ________  __  _____
 72
    65
 73
     4
 40
4.0
 49
2.5
 74
     0
 49
-0.5
 74
     0
 49
0.5
 74
     0
 49
-0.5
 74
     0
  0
LTYPE
  5
272
330
5
100
AcDbSymbolTableRecord
100
AcDbLinetypeTableRecord
  2
DASHDOT
 70
     0
  3
Dash dot __ . __ . __ . __ . __ . __ . __ . __
 72
    65
 73
     4
 40
1.0
 49
0.5
 74
     0
 49
-0.25
 74
     0
 49
0.0
 74
     0
 49
-0.25
 74
     0
  0
LTYPE
  5
273
330
5
100
AcDbSymbolTableRecord
100
AcDbLinetypeTableRecord
  2
DASHDOT2
 70
     0
  3
Dash dot (.5x) _._._._._._._._._._._._._._._.
 72
    65
 73
     4
 40
0.5
 49
0.25
 74
     0
 49
-0.125
 74
     0
 49
0.0
 74
     0
 49
-0.125
 74
     0
  0
LTYPE
  5
274
330
5
100
AcDbSymbolTableRecord
100
AcDbLinetypeTableRecord
  2
DASHDOTX2
 70
     0
  3
Dash dot (2x) ____  .  ____  .  ____  .  ___
 72
    65
 73
     4
 40
2.0
 49
1.0
 74
     0
 49
-0.5
 74
     0
 49
0.0
 74
     0
 49
-0.5
 74
     0
  0
LTYPE
  5
275
330
5
100
AcDbSymbolTableRecord
100
AcDbLinetypeTableRecord
  2
DASHED
 70
     0
  3
Dashed __ __ __ __ __ __ __ __ __ __ __ __ __ _
 72
    65
 73
     2
 40
0.75
 49
0.5
 74
     0
 49
-0.25
 74
     0
  0
LTYPE
  5
276
330
5
100
AcDbSymbolTableRecord
100
AcDbLinetypeTableRecord
  2
DASHED2
 70
     0
  3
Dashed (.5x) _ _ _ _ _ _ _ _ _ _ _ _ _ _ _ _ _
 72
    65
 73
     2
 40
0.375
 49
0.25
 74
     0
 49
-0.125
 74
     0
  0
LTYPE
  5
277
330
5
100
AcDbSymbolTableRecord
100
AcDbLinetypeTableRecord
  2
DASHEDX2
 70
     0
  3
Dashed (2x) ____  ____  ____  ____  ____  ___
 72
    65
 73
     2
 40
1.5
 49
1.0
 74
     0
 49
-0.5
 74
     0
  0
LTYPE
  5
278
330
5
100
AcDbSymbolTableRecord
100
AcDbLinetypeTableRecord
  2
DIVIDE
 70
     0
  3
Divide ____ . . ____ . . ____ . . ____ . . ____
 72
    65
 73
     6
 40
1.25
 49
0.5
 74
     0
 49
-0.25
 74
     0
 49
0.0
 74
     0
 49
-0.25
 74
     0
 49
0.0
 74
     0
 49
-0.25
 74
     0
  0
LTYPE
  5
279
330
5
100
AcDbSymbolTableRecord
100
AcDbLinetypeTableRecord
  2
DIVIDE2
 70
     0
  3
Divide (.5x) __..__..__..__..__..__..__..__.._
 72
    65
 73
     6
 40
0.625
 49
0.25
 74
     0
 49
-0.125
 74
     0
 49
0.0
 74
     0
 49
-0.125
 74
     0
 49
0.0
 74
     0
 49
-0.125
 74
     0
  0
LTYPE
  5
27A
330
5
100
AcDbSymbolTableRecord
100
AcDbLinetypeTableRecord
  2
DIVIDEX2
 70
     0
  3
Divide (2x) ________  .  .  ________  .  .  _
 72
    65
 73
     6
 40
2.5
 49
1.0
 74
     0
 49
-0.5
 74
     0
 49
0.0
 74
     0
 49
-0.5
 74
     0
 49
0.0
 74
     0
 49
-0.5
 74
     0
  0
LTYPE
  5
27B
330
5
100
AcDbSymbolTableRecord
100
AcDbLinetypeTableRecord
  2
DOT
 70
     0
  3
Dot . . . . . . . . . . . . . . . . . . . . . .
 72
    65
 73
     2
 40
0.25
 49
0.0
 74
     0
 49
-0.25
 74
     0
  0
LTYPE
  5
27C
330
5
100
AcDbSymbolTableRecord
100
AcDbLinetypeTableRecord
  2
DOT2
 70
     0
  3
Dot (.5x) .....................................
 72
    65
 73
     2
 40
0.125
 49
0.0
 74
     0
 49
-0.125
 74
     0
  0
LTYPE
  5
27D
330
5
100
AcDbSymbolTableRecord
100
AcDbLinetypeTableRecord
  2
DOTX2
 70
     0
  3
Dot (2x) .  .  .  .  .  .  .  .  .  .  .  .  . 
 72
    65
 73
     2
 40
0.5
 49
0.0
 74
     0
 49
-0.5
 74
     0
  0
LTYPE
  5
27E
330
5
100
AcDbSymbolTableRecord
100
AcDbLinetypeTableRecord
  2
HIDDEN
 70
     0
  3
Hidden __ __ __ __ __ __ __ __ __ __ __ __ __ _
 72
    65
 73
     2
 40
0.375
 49
0.25
 74
     0
 49
-0.125
 74
     0
  0
LTYPE
  5
27F
330
5
100
AcDbSymbolTableRecord
100
AcDbLinetypeTableRecord
  2
HIDDEN2
 70
     0
  3
Hidden (.5x) _ _ _ _ _ _ _ _ _ _ _ _ _ _ _ _ _
 72
    65
 73
     2
 40
0.1875
 49
0.125
 74
     0
 49
-0.0625
 74
     0
  0
LTYPE
  5
280
330
5
100
AcDbSymbolTableRecord
100
AcDbLinetypeTableRecord
  2
HIDDENX2
 70
     0
  3
Hidden (2x) ____ ____ ____ ____ ____ ____ ____
 72
    65
 73
     2
 40
0.75
 49
0.5
 74
     0
 49
-0.25
 74
     0
  0
LTYPE
  5
281
330
5
100
AcDbSymbolTableRecord
100
AcDbLinetypeTableRecord
  2
PHANTOM
 70
     0
  3
Phantom ______  __  __  ______  __  __  ______
 72
    65
 73
     6
 40
2.5
 49
1.25
 74
     0
 49
-0.25
 74
     0
 49
0.25
 74
     0
 49
-0.25
 74
     0
 49
0.25
 74
     0
 49
-0.25
 74
     0
  0
LTYPE
  5
282
330
5
100
AcDbSymbolTableRecord
100
AcDbLinetypeTableRecord
  2
PHANTOM2
 70
     0
  3
Phantom (.5x) ___ _ _ ___ _ _ ___ _ _ ___ _ _
 72
    65
 73
     6
 40
1.25
 49
0.625
 74
     0
 49
-0.125
 74
     0
 49
0.125
 74
     0
 49
-0.125
 74
     0
 49
0.125
 74
     0
 49
-0.125
 74
     0
  0
LTYPE
  5
283
330
5
100
AcDbSymbolTableRecord
100
AcDbLinetypeTableRecord
  2
PHANTOMX2
 70
     0
  3
Phantom (2x) ____________    ____    ____   _
 72
    65
 73
     6
 40
5.0
 49
2.5
 74
     0
 49
-0.5
 74
     0
 49
0.5
 74
     0
 49
-0.5
 74
     0
 49
0.5
 74
     0
 49
-0.5
 74
     0
  0
LTYPE
  5
284
330
5
100
AcDbSymbolTableRecord
100
AcDbLinetypeTableRecord
  2
ASSI
 70
     0
  3
-.-.-.-.-.-.-.-.-.-.-.-.-.-.-.-.-.-.-.-.-.-.-.-
 72
    65
 73
     4
 40
16.0
 49
10.0
 74
     0
 49
-2.0
 74
     0
 49
2.0
 74
     0
 49
-2.0
 74
     0
  0
LTYPE
  5
285
330
5
100
AcDbSymbolTableRecord
100
AcDbLinetypeTableRecord
  2
INGOMBRI
 70
     0
  3
--..--..--..--..--..--..--..--..--..--..--..--
 72
    65
 73
     6
 40
20.0
 49
10.0
 74
     0
 49
-2.0
 74
     0
 49
2.0
 74
     0
 49
-2.0
 74
     0
 49
2.0
 74
     0
 49
-2.0
 74
     0
  0
LTYPE
  5
286
330
5
100
AcDbSymbolTableRecord
100
AcDbLinetypeTableRecord
  2
TRATTEGGIO
 70
     0
  3
- - - - - - - - - - - - - - - - - - - - - -
 72
    65
 73
     2
 40
5.5
 49
4.0
 74
     0
 49
-1.5
 74
     0
  0
LTYPE
  5
287
330
5
100
AcDbSymbolTableRecord
100
AcDbLinetypeTableRecord
  2
PUNTO
 70
     0
  3
Punto . . . . . . . . . . . . . . . . . . . . .
 72
    65
 73
     2
 40
6.349999999999999
 49
0.0
 74
     0
 49
-6.349999999999999
 74
     0
  0
ENDTAB
  0
TABLE
  2
LAYER
  5
2
330
0
100
AcDbSymbolTable
 70
     6
  0
LAYER
  5
E
102
{ACAD_XDICTIONARY
360
29F
102
}
330
2
100
AcDbSymbolTableRecord
100
AcDbLayerTableRecord
  2
0
 70
     0
 62
     7
  6
CONTINUOUS
370
    -3
390
206
  0
LAYER
  5
264
102
{ACAD_XDICTIONARY
360
2A1
102
}
330
2
100
AcDbSymbolTableRecord
100
AcDbLayerTableRecord
  2
P-0000
 70
     0
 62
     7
  6
CONTINUOUS
370
    -3
390
206
1001
AcAecLayerStandard
1000

1000
TOP
  0
LAYER
  5
288
330
2
100
AcDbSymbolTableRecord
100
AcDbLayerTableRecord
  2
Defpoints
 70
     0
 62
     7
  6
CONTINUOUS
290
     0
370
    -3
390
206
  0
LAYER
  5
289
102
{ACAD_XDICTIONARY
360
2A3
102
}
330
2
100
AcDbSymbolTableRecord
100
AcDbLayerTableRecord
  2
MS_AXES
 70
     0
 62
     1
  6
CONTINUOUS
370
    -3
390
206
  0
LAYER
  5
28A
102
{ACAD_XDICTIONARY
360
2A5
102
}
330
2
100
AcDbSymbolTableRecord
100
AcDbLayerTableRecord
  2
P-6853
 70
     0
 62
     7
  6
CONTINUOUS
370
    -3
390
206
  0
LAYER
  5
28B
102
{ACAD_XDICTIONARY
360
2A7
102
}
330
2
100
AcDbSymbolTableRecord
100
AcDbLayerTableRecord
  2
COSTRUZIONE
 70
     0
 62
     7
  6
CONTINUOUS
370
    -3
390
206
  0
ENDTAB
  0
TABLE
  2
STYLE
  5
3
330
0
100
AcDbSymbolTable
 70
     4
  0
STYLE
  5
F
330
3
100
AcDbSymbolTableRecord
100
AcDbTextStyleTableRecord
  2
STANDARD
 70
     0
 40
0.0
 41
1.0
 50
0.0
 71
     0
 42
0.2
  3
txt
  4

  0
STYLE
  5
28C
330
3
100
AcDbSymbolTableRecord
100
AcDbTextStyleTableRecord
  2
ROMANS
 70
     0
 40
0.0
 41
1.0
 50
15.0
 71
     0
 42
3.0
  3
ROMANS.shx
  4

  0
STYLE
  5
28D
330
3
100
AcDbSymbolTableRecord
100
AcDbTextStyleTableRecord
  2

 70
     1
 40
0.0
 41
1.0
 50
0.0
 71
     0
 42
0.2
  3
ltypeshp.shx
  4

  0
STYLE
  5
28E
330
3
100
AcDbSymbolTableRecord
100
AcDbTextStyleTableRecord
  2
Annotative
 70
     0
 40
0.0
 41
1.0
 50
0.0
 71
     0
 42
0.2
  3
txt
  4

1001
AcadAnnotative
1000
AnnotativeData
1002
{
1070
     1
1070
     1
1002
}
  0
ENDTAB
  0
TABLE
  2
VIEW
  5
6
330
0
100
AcDbSymbolTable
 70
     0
  0
ENDTAB
  0
TABLE
  2
UCS
  5
7
330
0
100
AcDbSymbolTable
 70
     0
  0
ENDTAB
  0
TABLE
  2
APPID
  5
9
330
0
100
AcDbSymbolTable
 70
    13
  0
APPID
  5
10
330
9
100
AcDbSymbolTableRecord
100
AcDbRegAppTableRecord
  2
ACAD
 70
     0
  0
APPID
  5
258
330
9
100
AcDbSymbolTableRecord
100
AcDbRegAppTableRecord
  2
ACAD_MLEADERVER
 70
     0
  0
APPID
  5
265
330
9
100
AcDbSymbolTableRecord
100
AcDbRegAppTableRecord
  2
AcAecLayerStandard
 70
     0
  0
APPID
  5
26B
330
9
100
AcDbSymbolTableRecord
100
AcDbRegAppTableRecord
  2
TOP
 70
     0
  0
APPID
  5
290
330
9
100
AcDbSymbolTableRecord
100
AcDbRegAppTableRecord
  2
ACAD_DSTYLE_DIMTEXT_FILL
 70
     0
  0
APPID
  5
291
330
9
100
AcDbSymbolTableRecord
100
AcDbRegAppTableRecord
  2
MS_EXP_99
 70
     0
  0
APPID
  5
292
330
9
100
AcDbSymbolTableRecord
100
AcDbRegAppTableRecord
  2
MS_EXP_PRO
 70
     0
  0
APPID
  5
293
330
9
100
AcDbSymbolTableRecord
100
AcDbRegAppTableRecord
  2
MS_EXP_PROJECT_BASE
 70
     0
  0
APPID
  5
294
330
9
100
AcDbSymbolTableRecord
100
AcDbRegAppTableRecord
  2
MS_EXPLO_FILLET
 70
     0
  0
APPID
  5
295
330
9
100
AcDbSymbolTableRecord
100
AcDbRegAppTableRecord
  2
MS_EXPLO_FOR_FILLET
 70
     0
  0
APPID
  5
296
330
9
100
AcDbSymbolTableRecord
100
AcDbRegAppTableRecord
  2
MS
 70
     0
  0
APPID
  5
297
330
9
100
AcDbSymbolTableRecord
100
AcDbRegAppTableRecord
  2
MS_BASE
 70
     0
  0
APPID
  5
298
330
9
100
AcDbSymbolTableRecord
100
AcDbRegAppTableRecord
  2
AcadAnnotative
 70
     0
  0
ENDTAB
  0
TABLE
  2
DIMSTYLE
  5
A
330
0
100
AcDbSymbolTable
 70
     2
100
AcDbDimStyleTable
 71
     1
340
28F
  0
DIMSTYLE
105
D3
330
A
100
AcDbSymbolTableRecord
100
AcDbDimStyleTableRecord
  2
STANDARD
 70
     0
340
F
  0
DIMSTYLE
105
28F
330
A
100
AcDbSymbolTableRecord
100
AcDbDimStyleTableRecord
  2
ACADTOP
 70
     0
 41
3.0
 42
1.0
 43
10.0
 44
0.5
 73
     0
 74
     0
 77
     1
 78
     8
 79
     2
140
3.0
141
0.0
146
0.7
147
1.5
172
     1
174
     1
176
     3
177
     3
178
     6
179
     2
271
     2
272
     2
284
     8
289
     0
340
28C
  0
ENDTAB
  0
TABLE
  2
BLOCK_RECORD
  5
1
330
0
100
AcDbSymbolTable
 70
     1
  0
BLOCK_RECORD
  5
18
330
1
100
AcDbSymbolTableRecord
100
AcDbBlockTableRecord
  2
*MODEL_SPACE
340
25B
  0
BLOCK_RECORD
  5
15
330
1
100
AcDbSymbolTableRecord
100
AcDbBlockTableRecord
  2
*PAPER_SPACE
340
25C
  0
ENDTAB
  0
ENDSEC
  0
SECTION
  2
BLOCKS
  0
BLOCK
  5
19
330
18
100
AcDbEntity
  8
0
100
AcDbBlockBegin
  2
*MODEL_SPACE
 70
     0
 10
0.0
 20
0.0
 30
0.0
  3
*MODEL_SPACE
  1

  0
ENDBLK
  5
1A
330
18
100
AcDbEntity
  8
0
100
AcDbBlockEnd
  0
BLOCK
  5
16
330
15
100
AcDbEntity
 67
     1
  8
0
100
AcDbBlockBegin
  2
*PAPER_SPACE
 70
     0
 10
0.0
 20
0.0
 30
0.0
  3
*PAPER_SPACE
  1

  0
ENDBLK
  5
17
330
15
100
AcDbEntity
 67
     1
  8
0
100
AcDbBlockEnd
  0
ENDSEC
  0
SECTION
  2
ENTITIES
  0
LINE
  5
DD
330
18
100
AcDbEntity
  8
0
 62
     7
100
AcDbLine
 10
-10.21669
 20
35.332919
 30
0.0
 11
-11.75819
 21
33.65584099999999
 31
0.0
  0
LINE
  5
DE
330
18
100
AcDbEntity
  8
0
 62
     7
100
AcDbLine
 10
-13.141631
 20
32.011029
 30
0.0
 11
-14.050726
 21
30.624213
 31
0.0
  0
LINE
  5
DF
330
18
100
AcDbEntity
  8
0
 62
     7
100
AcDbLine
 10
-14.56458
 20
28.818124
 30
0.0
 11
-15.552696
 21
27.044305
 31
0.0
  0
LINE
  5
E0
330
18
100
AcDbEntity
  8
0
 62
     7
100
AcDbLine
 10
-15.829388
 20
22.335597
 30
0.0
 11
-15.434125
 21
19.045973
 31
0.0
  0
LINE
  5
E1
330
18
100
AcDbEntity
  8
0
 62
     7
100
AcDbLine
 10
-17.094217
 20
22.980615
 30
0.0
 11
-17.094217
 21
18.1429
 31
0.0
  0
LINE
  5
E2
330
18
100
AcDbEntity
  8
0
 62
     7
100
AcDbLine
 10
-16.698953
 20
15.208052
 30
0.0
 11
-14.683151
 21
12.015147
 31
0.0
  0
LINE
  5
E3
330
18
100
AcDbEntity
  8
0
 62
     7
100
AcDbLine
 10
-1.165198999999999
 20
0.565917
 30
0.0
 11
-3.971567999999999
 21
1.339941999999999
 31
0.0
  0
LINE
  5
E4
330
18
100
AcDbEntity
  8
0
 62
     7
100
AcDbLine
 10
-4.762093
 20
1.984979999999999
 30
0.0
 11
-8.319416999999999
 21
5.01661
 31
0.0
  0
LINE
  5
E5
330
18
100
AcDbEntity
  8
0
 62
     7
100
AcDbLine
 10
-9.584265999999999
 20
6.306666
 30
0.0
 11
-10.335261
 21
9.596289999999999
 31
0.0
  0
LINE
  5
E6
330
18
100
AcDbEntity
  8
0
 62
     7
100
AcDbLine
 10
-11.362927
 20
11.7894
 30
0.0
 11
-12.272024
 21
16.852864
 31
0.0
  0
LINE
  5
E7
330
18
100
AcDbEntity
  8
0
 62
     7
100
AcDbLine
 10
-12.272024
 20
20.948801
 30
0.0
 11
-12.113923
 21
23.980429
 31
0.0
  0
LINE
  5
E8
330
18
100
AcDbEntity
  8
0
 62
     7
100
AcDbLine
 10
-11.244357
 20
25.786496
 30
0.0
 11
-10.849094
 21
26.915298
 31
0.0
  0
LINE
  5
E9
330
18
100
AcDbEntity
  8
0
 62
     7
100
AcDbLine
 10
-9.979528999999999
 20
28.72138400000001
 30
0.0
 11
-9.307593999999999
 21
30.237189
 31
0.0
  0
LINE
  5
EA
330
18
100
AcDbEntity
  8
0
 62
     7
100
AcDbLine
 10
-8.161336999999999
 20
32.398032
 30
0.0
 11
-6.382633999999999
 21
35.074905
 31
0.0
  0
LINE
  5
EB
330
18
100
AcDbEntity
  8
0
 62
     7
100
AcDbLine
 10
-4.880664
 20
36.848724
 30
0.0
 11
-2.311436
 21
39.267584
 31
0.0
  0
LINE
  5
EC
330
18
100
AcDbEntity
  8
0
 62
     7
100
AcDbLine
 10
-1.32332
 20
39.267584
 30
0.0
 11
-0.809467
 21
37.364755
 31
0.0
  0
LINE
  5
ED
330
18
100
AcDbEntity
  8
0
 62
     7
100
AcDbLine
 10
-0.295633
 20
35.590936
 30
0.0
 11
0.336811
 21
31.882022
 31
0.0
  0
LINE
  5
EE
330
18
100
AcDbEntity
  8
0
 62
     7
100
AcDbLine
 10
0.336811
 20
30.366177
 30
0.0
 11
0.613463
 21
27.431329
 31
0.0
  0
LINE
  5
EF
330
18
100
AcDbEntity
  8
0
 62
     7
100
AcDbLine
 10
0.850645
 20
25.915503
 30
0.0
 11
0.732074
 21
25.270486
 31
0.0
  0
LINE
  5
F0
330
18
100
AcDbEntity
  8
0
 62
     7
100
AcDbLine
 10
0.732074
 20
24.238425
 30
0.0
 11
0.9692159999999999
 21
23.367659
 31
0.0
  0
LINE
  5
F1
330
18
100
AcDbEntity
  8
0
 62
     7
100
AcDbLine
 10
0.9692159999999999
 20
22.20661
 30
0.0
 11
1.245908
 21
20.690785
 31
0.0
  0
LINE
  5
F2
330
18
100
AcDbEntity
  8
0
 62
     7
100
AcDbLine
 10
1.245908
 20
19.045973
 30
0.0
 11
1.364478
 21
16.852864
 31
0.0
  0
LINE
  5
F3
330
18
100
AcDbEntity
  8
0
 62
     7
100
AcDbLine
 10
1.483068999999999
 20
14.562993
 30
0.0
 11
1.364478
 21
13.692227
 31
0.0
  0
LINE
  5
F4
330
18
100
AcDbEntity
  8
0
 62
     7
100
AcDbLine
 10
0.9692159999999999
 20
11.015374
 30
0.0
 11
0.732074
 21
9.467302999999999
 31
0.0
  0
LINE
  5
F5
330
18
100
AcDbEntity
  8
0
 62
     7
100
AcDbLine
 10
0.613463
 20
7.822449
 30
0.0
 11
0.613463
 21
5.661628
 31
0.0
  0
LINE
  5
F6
330
18
100
AcDbEntity
  8
0
 62
     7
100
AcDbLine
 10
0.732074
 20
4.403837999999999
 30
0.0
 11
0.4948920000000001
 21
3.629791999999999
 31
0.0
  0
LINE
  5
F7
330
18
100
AcDbEntity
  8
0
 62
     7
100
AcDbLine
 10
0.4948920000000001
 20
2.339716
 30
0.0
 11
0.336811
 21
1.210935
 31
0.0
  0
LINE
  5
F8
330
18
100
AcDbEntity
  8
0
 62
     7
100
AcDbLine
 10
-0.177063
 20
38.622565
 30
0.0
 11
2.510736
 21
35.719922
 31
0.0
  0
LINE
  5
F9
330
18
100
AcDbEntity
  8
0
 62
     7
100
AcDbLine
 10
4.170827
 20
33.91385800000001
 30
0.0
 11
6.858625999999999
 21
31.236984
 31
0.0
  0
LINE
  5
FA
330
18
100
AcDbEntity
  8
0
 62
     7
100
AcDbLine
 10
7.491028999999999
 20
29.463162
 30
0.0
 11
8.004863
 21
28.076346
 31
0.0
  0
LINE
  5
FB
330
18
100
AcDbEntity
  8
0
 62
     7
100
AcDbLine
 10
8.874428999999999
 20
25.657489
 30
0.0
 11
9.388303
 21
24.367453
 31
0.0
  0
LINE
  5
FC
330
18
100
AcDbEntity
  8
0
 62
     7
100
AcDbLine
 10
9.269690999999999
 20
21.206816
 30
0.0
 11
9.269690999999999
 21
18.529942
 31
0.0
  0
LINE
  5
FD
330
18
100
AcDbEntity
  8
0
 62
     7
100
AcDbLine
 10
9.151120999999999
 20
15.337059
 30
0.0
 11
8.637266999999999
 21
13.047209
 31
0.0
  0
LINE
  5
FE
330
18
100
AcDbEntity
  8
0
 62
     7
100
AcDbLine
 10
8.242024999999999
 20
10.757338
 30
0.0
 11
5.435675999999999
 21
5.403631999999999
 31
0.0
  0
LINE
  5
FF
330
18
100
AcDbEntity
  8
0
 62
     7
100
AcDbLine
 10
4.68466
 20
3.500763999999999
 30
0.0
 11
3.024569
 21
1.339941999999999
 31
0.0
  0
LINE
  5
100
330
18
100
AcDbEntity
  8
0
 62
     7
100
AcDbLine
 10
3.894134999999999
 20
1.210935
 30
0.0
 11
8.637266999999999
 21
3.887808
 31
0.0
  0
LINE
  5
101
330
18
100
AcDbEntity
  8
0
 62
     7
100
AcDbLine
 10
9.625443999999999
 20
5.403631999999999
 30
0.0
 11
11.562228
 21
8.209493
 31
0.0
  0
LINE
  5
102
330
18
100
AcDbEntity
  8
0
 62
     7
100
AcDbLine
 10
12.194631
 20
10.241308
 30
0.0
 11
13.064238
 21
13.563219
 31
0.0
  0
LINE
  5
103
330
18
100
AcDbEntity
  8
0
 62
     7
100
AcDbLine
 10
13.222298
 20
15.595055
 30
0.0
 11
13.222298
 21
23.496646
 31
0.0
  0
LINE
  5
104
330
18
100
AcDbEntity
  8
0
 62
     7
100
AcDbLine
 10
12.708465
 20
25.657489
 30
0.0
 11
11.799368
 21
27.560336
 31
0.0
  0
LINE
  5
105
330
18
100
AcDbEntity
  8
0
 62
     7
100
AcDbLine
 10
10.139297
 20
31.011237
 30
0.0
 11
9.625443999999999
 21
32.527039
 31
0.0
  0
LINE
  5
106
330
18
100
AcDbEntity
  8
0
 62
     7
100
AcDbLine
 10
8.360596000000001
 20
33.784848
 30
0.0
 11
7.846761999999999
 21
34.171872
 31
0.0
  0
LINE
  5
107
330
18
100
AcDbEntity
  8
0
 62
     7
100
AcDbLine
 10
6.700503999999999
 20
35.461929
 30
0.0
 11
6.0681
 21
36.074698
 31
0.0
  0
LINE
  5
108
330
18
100
AcDbEntity
  8
0
 62
     7
100
AcDbLine
 10
4.68466
 20
37.364755
 30
0.0
 11
0.2182
 21
39.396591
 31
0.0
  0
LINE
  5
109
330
18
100
AcDbEntity
  8
0
 62
     7
100
AcDbLine
 10
11.048394
 20
33.430093
 30
0.0
 11
13.340889
 21
30.882208
 31
0.0
  0
LINE
  5
10A
330
18
100
AcDbEntity
  8
0
 62
     7
100
AcDbLine
 10
14.724309
 20
28.334363
 30
0.0
 11
15.751996
 21
26.78627
 31
0.0
  0
LINE
  5
10B
330
18
100
AcDbEntity
  8
0
 62
     7
100
AcDbLine
 10
16.661092
 20
24.238425
 30
0.0
 11
17.293495
 21
22.20661
 31
0.0
  0
LINE
  5
10C
330
18
100
AcDbEntity
  8
0
 62
     7
100
AcDbLine
 10
17.412067
 20
20.819794
 30
0.0
 11
17.412067
 21
18.013911
 31
0.0
  0
LINE
  5
10D
330
18
100
AcDbEntity
  8
0
 62
     7
100
AcDbLine
 10
16.661092
 20
15.466068
 30
0.0
 11
15.514835
 21
11.015374
 31
0.0
  0
LINE
  5
10E
330
18
100
AcDbEntity
  8
0
 62
     7
100
AcDbLine
 10
14.487167
 20
7.564474999999999
 30
0.0
 11
13.4595
 21
6.177658
 31
0.0
  0
LINE
  5
10F
330
18
100
AcDbEntity
  8
0
 62
     7
100
AcDbLine
 10
10.297399
 20
3.758799999999999
 30
0.0
 11
6.0681
 21
1.468949999999999
 31
0.0
  0
LINE
  5
110
330
18
100
AcDbEntity
  8
0
 62
     7
100
AcDbLine
 10
16.14725799999999
 20
9.241533999999999
 30
0.0
 11
17.412067
 21
12.144176
 31
0.0
  0
LINE
  5
111
330
18
100
AcDbEntity
  8
0
 62
     7
100
AcDbLine
 10
18.044531
 20
15.595055
 30
0.0
 11
18.281673
 21
17.368895
 31
0.0
  0
LINE
  5
112
330
18
100
AcDbEntity
  8
0
 62
     7
100
AcDbLine
 10
18.439793
 20
19.271721
 30
0.0
 11
18.439793
 21
20.819794
 31
0.0
  0
LINE
  5
113
330
18
100
AcDbEntity
  8
0
 62
     7
100
AcDbLine
 10
18.044531
 20
22.980615
 30
0.0
 11
17.016824
 21
25.915503
 31
0.0
  0
LINE
  5
114
330
18
100
AcDbEntity
  8
0
 62
     7
100
AcDbLine
 10
16.779662
 20
27.560336
 30
0.0
 11
14.8429
 21
31.236984
 31
0.0
  0
LINE
  5
115
330
18
100
AcDbEntity
  8
0
 62
     7
100
AcDbLine
 10
13.578072
 20
32.785034
 30
0.0
 11
12.194631
 21
34.171872
 31
0.0
  0
LINE
  5
116
330
18
100
AcDbEntity
  8
0
 62
     7
100
AcDbLine
 10
10.297399
 20
35.590936
 30
0.0
 11
8.004863
 21
37.622751
 31
0.0
  0
LINE
  5
14A
330
18
100
AcDbEntity
  8
0
 62
     7
100
AcDbLine
 10
-5.875555
 20
0.916257
 30
0.0
 11
-7.124657
 21
1.352087999999999
 31
0.0
  0
LINE
  5
152
330
18
100
AcDbEntity
  8
0
 62
     7
100
AcDbLine
 10
-11.125867
 20
3.532888999999999
 30
0.0
 11
-12.091523
 21
4.234628999999999
 31
0.0
  0
LINE
  5
184
330
18
100
AcDbEntity
  8
0
 62
     7
100
AcDbLine
 10
4.510263
 20
39.411807
 30
0.0
 11
0.0
 21
39.932721
 31
0.0
  0
LINE
  5
185
330
18
100
AcDbEntity
  8
0
 62
     7
100
AcDbLine
 10
-0.077453
 20
0.115356
 30
0.0
 11
0.0
 21
0.0
 31
0.0
  0
LINE
  5
186
330
18
100
AcDbEntity
  8
0
 62
     7
100
AcDbLine
 10
13.222298
 20
15.595055
 30
0.0
 11
13.222298
 21
23.496646
 31
0.0
  0
LINE
  5
188
330
18
100
AcDbEntity
  8
0
 62
     7
100
AcDbLine
 10
-12.091523
 20
4.234628999999999
 30
0.0
 11
-13.077605
 21
5.009468
 31
0.0
  0
LINE
  5
189
330
18
100
AcDbEntity
  8
0
 62
     7
100
AcDbLine
 10
-13.077605
 20
5.009468
 30
0.0
 11
-13.984686
 21
5.84813
 31
0.0
  0
LINE
  5
18A
330
18
100
AcDbEntity
  8
0
 62
     7
100
AcDbLine
 10
-13.984686
 20
5.84813
 30
0.0
 11
-14.793034
 21
6.748783
 31
0.0
  0
LINE
  5
18B
330
18
100
AcDbEntity
  8
0
 62
     7
100
AcDbLine
 10
-14.793034
 20
6.748783
 30
0.0
 11
-15.511517
 21
7.712260999999999
 31
0.0
  0
LINE
  5
18C
330
18
100
AcDbEntity
  8
0
 62
     7
100
AcDbLine
 10
-15.511517
 20
7.712260999999999
 30
0.0
 11
-16.213603
 21
8.745461999999999
 31
0.0
  0
LINE
  5
18D
330
18
100
AcDbEntity
  8
0
 62
     7
100
AcDbLine
 10
-16.213603
 20
8.745461999999999
 30
0.0
 11
-16.91573
 21
9.849950999999999
 31
0.0
  0
LINE
  5
18E
330
18
100
AcDbEntity
  8
0
 62
     7
100
AcDbLine
 10
-16.91573
 20
9.849950999999999
 30
0.0
 11
-17.607541
 21
11.014703
 31
0.0
  0
LINE
  5
18F
330
18
100
AcDbEntity
  8
0
 62
     7
100
AcDbLine
 10
-17.607541
 20
11.014703
 30
0.0
 11
-18.190791
 21
12.134288
 31
0.0
  0
LINE
  5
190
330
18
100
AcDbEntity
  8
0
 62
     7
100
AcDbLine
 10
-18.190791
 20
12.134288
 30
0.0
 11
-18.641129
 21
13.182625
 31
0.0
  0
LINE
  5
191
330
18
100
AcDbEntity
  8
0
 62
     7
100
AcDbLine
 10
-18.641129
 20
13.182625
 30
0.0
 11
-18.965529
 21
14.169113
 31
0.0
  0
LINE
  5
192
330
18
100
AcDbEntity
  8
0
 62
     7
100
AcDbLine
 10
-18.965529
 20
14.169113
 30
0.0
 11
-19.241835
 21
15.198001
 31
0.0
  0
LINE
  5
193
330
18
100
AcDbEntity
  8
0
 62
     7
100
AcDbLine
 10
-19.241835
 20
15.198001
 30
0.0
 11
-19.49155
 21
16.298178
 31
0.0
  0
LINE
  5
194
330
18
100
AcDbEntity
  8
0
 62
     7
100
AcDbLine
 10
-19.49155
 20
16.298178
 30
0.0
 11
-19.712273
 21
17.450436
 31
0.0
  0
LINE
  5
195
330
18
100
AcDbEntity
  8
0
 62
     7
100
AcDbLine
 10
-19.712273
 20
17.450436
 30
0.0
 11
-19.87316
 21
18.40535
 31
0.0
  0
LINE
  5
196
330
18
100
AcDbEntity
  8
0
 62
     7
100
AcDbLine
 10
-19.87316
 20
18.40535
 30
0.0
 11
-19.964571
 21
19.086093
 31
0.0
  0
LINE
  5
197
330
18
100
AcDbEntity
  8
0
 62
     7
100
AcDbLine
 10
-19.964571
 20
19.086093
 30
0.0
 11
-19.987317
 21
19.514844
 31
0.0
  0
LINE
  5
198
330
18
100
AcDbEntity
  8
0
 62
     7
100
AcDbLine
 10
-19.987317
 20
19.514844
 30
0.0
 11
-19.95159
 21
20.033987
 31
0.0
  0
LINE
  5
199
330
18
100
AcDbEntity
  8
0
 62
     7
100
AcDbLine
 10
-19.95159
 20
20.033987
 30
0.0
 11
-19.860953
 21
20.760487
 31
0.0
  0
LINE
  5
19A
330
18
100
AcDbEntity
  8
0
 62
     7
100
AcDbLine
 10
-19.860953
 20
20.760487
 30
0.0
 11
-19.714897
 21
21.692329
 31
0.0
  0
LINE
  5
19B
330
18
100
AcDbEntity
  8
0
 62
     7
100
AcDbLine
 10
-19.714897
 20
21.692329
 30
0.0
 11
-19.503268
 21
22.791977
 31
0.0
  0
LINE
  5
19C
330
18
100
AcDbEntity
  8
0
 62
     7
100
AcDbLine
 10
-19.503268
 20
22.791977
 30
0.0
 11
-19.222223
 21
24.045148
 31
0.0
  0
LINE
  5
19D
330
18
100
AcDbEntity
  8
0
 62
     7
100
AcDbLine
 10
-19.222223
 20
24.045148
 30
0.0
 11
-18.873061
 21
25.442035
 31
0.0
  0
LINE
  5
19E
330
18
100
AcDbEntity
  8
0
 62
     7
100
AcDbLine
 10
-18.873061
 20
25.442035
 30
0.0
 11
-18.484981
 21
26.752579
 31
0.0
  0
LINE
  5
19F
330
18
100
AcDbEntity
  8
0
 62
     7
100
AcDbLine
 10
-18.484981
 20
26.752579
 30
0.0
 11
-18.070349
 21
27.880261
 31
0.0
  0
LINE
  5
1A0
330
18
100
AcDbEntity
  8
0
 62
     7
100
AcDbLine
 10
-18.070349
 20
27.880261
 30
0.0
 11
-17.629778
 21
28.828094
 31
0.0
  0
LINE
  5
1A1
330
18
100
AcDbEntity
  8
0
 62
     7
100
AcDbLine
 10
-17.629778
 20
28.828094
 30
0.0
 11
-17.183612
 21
29.685007
 31
0.0
  0
LINE
  5
1A2
330
18
100
AcDbEntity
  8
0
 62
     7
100
AcDbLine
 10
-17.183612
 20
29.685007
 30
0.0
 11
-16.741231
 21
30.492294
 31
0.0
  0
LINE
  5
1A3
330
18
100
AcDbEntity
  8
0
 62
     7
100
AcDbLine
 10
-16.741231
 20
30.492294
 30
0.0
 11
-16.300681
 21
31.251794
 31
0.0
  0
LINE
  5
1A4
330
18
100
AcDbEntity
  8
0
 62
     7
100
AcDbLine
 10
-16.300681
 20
31.251794
 30
0.0
 11
-15.785605
 21
32.033878
 31
0.0
  0
LINE
  5
1A5
330
18
100
AcDbEntity
  8
0
 62
     7
100
AcDbLine
 10
-15.785605
 20
32.033878
 30
0.0
 11
-15.156599
 21
32.874857
 31
0.0
  0
LINE
  5
1A6
330
18
100
AcDbEntity
  8
0
 62
     7
100
AcDbLine
 10
-15.156599
 20
32.874857
 30
0.0
 11
-14.414677
 21
33.772824
 31
0.0
  0
LINE
  5
1A7
330
18
100
AcDbEntity
  8
0
 62
     7
100
AcDbLine
 10
-14.414677
 20
33.772824
 30
0.0
 11
-13.617154
 21
34.624548
 31
0.0
  0
LINE
  5
1A8
330
18
100
AcDbEntity
  8
0
 62
     7
100
AcDbLine
 10
-13.617154
 20
34.624548
 30
0.0
 11
-12.796823
 21
35.370883
 31
0.0
  0
LINE
  5
1A9
330
18
100
AcDbEntity
  8
0
 62
     7
100
AcDbLine
 10
-12.796823
 20
35.370883
 30
0.0
 11
-11.953808
 21
36.01232
 31
0.0
  0
LINE
  5
1AA
330
18
100
AcDbEntity
  8
0
 62
     7
100
AcDbLine
 10
-11.953808
 20
36.01232
 30
0.0
 11
-11.094964
 21
36.588391
 31
0.0
  0
LINE
  5
1AB
330
18
100
AcDbEntity
  8
0
 62
     7
100
AcDbLine
 10
-11.094964
 20
36.588391
 30
0.0
 11
-10.224767
 21
37.124115
 31
0.0
  0
LINE
  5
1AC
330
18
100
AcDbEntity
  8
0
 62
     7
100
AcDbLine
 10
-10.224767
 20
37.124115
 30
0.0
 11
-9.343096
 21
37.619537
 31
0.0
  0
LINE
  5
1AD
330
18
100
AcDbEntity
  8
0
 62
     7
100
AcDbLine
 10
-9.343096
 20
37.619537
 30
0.0
 11
-8.441121
 21
38.069202
 31
0.0
  0
LINE
  5
1AE
330
18
100
AcDbEntity
  8
0
 62
     7
100
AcDbLine
 10
-8.441121
 20
38.069202
 30
0.0
 11
-7.512533999999999
 21
38.469266
 31
0.0
  0
LINE
  5
1AF
330
18
100
AcDbEntity
  8
0
 62
     7
100
AcDbLine
 10
-7.512533999999999
 20
38.469266
 30
0.0
 11
-6.557377
 21
38.819769
 31
0.0
  0
LINE
  5
1B0
330
18
100
AcDbEntity
  8
0
 62
     7
100
AcDbLine
 10
-6.557377
 20
38.819769
 30
0.0
 11
-5.571377
 21
39.122421
 31
0.0
  0
LINE
  5
1B1
330
18
100
AcDbEntity
  8
0
 62
     7
100
AcDbLine
 10
-5.571377
 20
39.122421
 30
0.0
 11
-4.551177
 21
39.378586
 31
0.0
  0
LINE
  5
1B2
330
18
100
AcDbEntity
  8
0
 62
     7
100
AcDbLine
 10
-4.551177
 20
39.378586
 30
0.0
 11
-3.496816999999999
 21
39.588242
 31
0.0
  0
LINE
  5
1B3
330
18
100
AcDbEntity
  8
0
 62
     7
100
AcDbLine
 10
-3.496816999999999
 20
39.588242
 30
0.0
 11
-2.393386
 21
39.750757
 31
0.0
  0
LINE
  5
1B4
330
18
100
AcDbEntity
  8
0
 62
     7
100
AcDbLine
 10
-2.393386
 20
39.750757
 30
0.0
 11
-1.2278
 21
39.86558200000001
 31
0.0
  0
LINE
  5
1B5
330
18
100
AcDbEntity
  8
0
 62
     7
100
AcDbLine
 10
-1.2278
 20
39.86558200000001
 30
0.0
 11
0.0
 21
39.932721
 31
0.0
  0
LINE
  5
1BA
330
18
100
AcDbEntity
  8
0
 62
     7
100
AcDbLine
 10
-7.124657
 20
1.352087999999999
 30
0.0
 11
-8.259684
 21
1.831254
 31
0.0
  0
LINE
  5
1BB
330
18
100
AcDbEntity
  8
0
 62
     7
100
AcDbLine
 10
-8.259684
 20
1.831254
 30
0.0
 11
-9.276994999999999
 21
2.347609999999999
 31
0.0
  0
LINE
  5
1BC
330
18
100
AcDbEntity
  8
0
 62
     7
100
AcDbLine
 10
-9.276994999999999
 20
2.347609999999999
 30
0.0
 11
-10.194453
 21
2.905531
 31
0.0
  0
LINE
  5
1BD
330
18
100
AcDbEntity
  8
0
 62
     7
100
AcDbLine
 10
-10.194453
 20
2.905531
 30
0.0
 11
-11.125867
 21
3.532888999999999
 31
0.0
  0
LINE
  5
1BF
330
18
100
AcDbEntity
  8
0
 62
     7
100
AcDbLine
 10
4.510263
 20
39.411807
 30
0.0
 11
6.877933
 21
38.495712
 31
0.0
  0
LINE
  5
1C0
330
18
100
AcDbEntity
  8
0
 62
     7
100
AcDbLine
 10
6.877933
 20
38.495712
 30
0.0
 11
8.778399999999999
 21
37.66327800000001
 31
0.0
  0
LINE
  5
1C1
330
18
100
AcDbEntity
  8
0
 62
     7
100
AcDbLine
 10
8.778399999999999
 20
37.66327800000001
 30
0.0
 11
10.211706
 21
36.91456
 31
0.0
  0
LINE
  5
1C2
330
18
100
AcDbEntity
  8
0
 62
     7
100
AcDbLine
 10
10.211706
 20
36.91456
 30
0.0
 11
11.350985
 21
36.204297
 31
0.0
  0
LINE
  5
1C3
330
18
100
AcDbEntity
  8
0
 62
     7
100
AcDbLine
 10
11.350985
 20
36.204297
 30
0.0
 11
12.391388
 21
35.481723
 31
0.0
  0
LINE
  5
1C4
330
18
100
AcDbEntity
  8
0
 62
     7
100
AcDbLine
 10
12.391388
 20
35.481723
 30
0.0
 11
13.333035
 21
34.746762
 31
0.0
  0
LINE
  5
1C5
330
18
100
AcDbEntity
  8
0
 62
     7
100
AcDbLine
 10
13.333035
 20
34.746762
 30
0.0
 11
14.209418
 21
33.96655
 31
0.0
  0
LINE
  5
1C6
330
18
100
AcDbEntity
  8
0
 62
     7
100
AcDbLine
 10
14.209418
 20
33.96655
 30
0.0
 11
15.062869
 21
33.09970999999999
 31
0.0
  0
LINE
  5
1C7
330
18
100
AcDbEntity
  8
0
 62
     7
100
AcDbLine
 10
15.062869
 20
33.09970999999999
 30
0.0
 11
15.893536
 21
32.146078
 31
0.0
  0
LINE
  5
1C8
330
18
100
AcDbEntity
  8
0
 62
     7
100
AcDbLine
 10
15.893536
 20
32.146078
 30
0.0
 11
16.670044
 21
31.122339
 31
0.0
  0
LINE
  5
1C9
330
18
100
AcDbEntity
  8
0
 62
     7
100
AcDbLine
 10
16.670044
 20
31.122339
 30
0.0
 11
17.348102
 21
30.051929
 31
0.0
  0
LINE
  5
1CA
330
18
100
AcDbEntity
  8
0
 62
     7
100
AcDbLine
 10
17.348102
 20
30.051929
 30
0.0
 11
17.927385
 21
28.935028
 31
0.0
  0
LINE
  5
1CB
330
18
100
AcDbEntity
  8
0
 62
     7
100
AcDbLine
 10
17.927385
 20
28.935028
 30
0.0
 11
18.422623
 21
27.78480200000001
 31
0.0
  0
LINE
  5
1CC
330
18
100
AcDbEntity
  8
0
 62
     7
100
AcDbLine
 10
18.422623
 20
27.78480200000001
 30
0.0
 11
18.856744
 21
26.621942
 31
0.0
  0
LINE
  5
1CD
330
18
100
AcDbEntity
  8
0
 62
     7
100
AcDbLine
 10
18.856744
 20
26.621942
 30
0.0
 11
19.230156
 21
25.446674
 31
0.0
  0
LINE
  5
1CE
330
18
100
AcDbEntity
  8
0
 62
     7
100
AcDbLine
 10
19.230156
 20
25.446674
 30
0.0
 11
19.529086
 21
24.26235
 31
0.0
  0
LINE
  5
1CF
330
18
100
AcDbEntity
  8
0
 62
     7
100
AcDbLine
 10
19.529086
 20
24.26235
 30
0.0
 11
19.729688
 21
23.074854
 31
0.0
  0
LINE
  5
1D0
330
18
100
AcDbEntity
  8
0
 62
     7
100
AcDbLine
 10
19.729688
 20
23.074854
 30
0.0
 11
19.831575
 21
21.884244
 31
0.0
  0
LINE
  5
1D1
330
18
100
AcDbEntity
  8
0
 62
     7
100
AcDbLine
 10
19.831575
 20
21.884244
 30
0.0
 11
19.85249
 21
20.6563
 31
0.0
  0
LINE
  5
1D2
330
18
100
AcDbEntity
  8
0
 62
     7
100
AcDbLine
 10
19.85249
 20
20.6563
 30
0.0
 11
19.826936
 21
19.32466
 31
0.0
  0
LINE
  5
1D3
330
18
100
AcDbEntity
  8
0
 62
     7
100
AcDbLine
 10
19.826936
 20
19.32466
 30
0.0
 11
19.755811
 21
17.887651
 31
0.0
  0
LINE
  5
1D4
330
18
100
AcDbEntity
  8
0
 62
     7
100
AcDbLine
 10
19.755811
 20
17.887651
 30
0.0
 11
19.621391
 21
16.410686
 31
0.0
  0
LINE
  5
1D5
330
18
100
AcDbEntity
  8
0
 62
     7
100
AcDbLine
 10
19.621391
 20
16.410686
 30
0.0
 11
19.385715
 21
15.034346
 31
0.0
  0
LINE
  5
1D6
330
18
100
AcDbEntity
  8
0
 62
     7
100
AcDbLine
 10
19.385715
 20
15.034346
 30
0.0
 11
19.047499
 21
13.763394
 31
0.0
  0
LINE
  5
1D7
330
18
100
AcDbEntity
  8
0
 62
     7
100
AcDbLine
 10
19.047499
 20
13.763394
 30
0.0
 11
18.623082
 21
12.589772
 31
0.0
  0
LINE
  5
1D8
330
18
100
AcDbEntity
  8
0
 62
     7
100
AcDbLine
 10
18.623082
 20
12.589772
 30
0.0
 11
18.151404
 21
11.494479
 31
0.0
  0
LINE
  5
1D9
330
18
100
AcDbEntity
  8
0
 62
     7
100
AcDbLine
 10
18.151404
 20
11.494479
 30
0.0
 11
17.634152
 21
10.476659
 31
0.0
  0
LINE
  5
1DA
330
18
100
AcDbEntity
  8
0
 62
     7
100
AcDbLine
 10
17.634152
 20
10.476659
 30
0.0
 11
17.04722
 21
9.492103
 31
0.0
  0
LINE
  5
1DB
330
18
100
AcDbEntity
  8
0
 62
     7
100
AcDbLine
 10
17.04722
 20
9.492103
 30
0.0
 11
16.326926
 21
8.423847999999999
 31
0.0
  0
LINE
  5
1DC
330
18
100
AcDbEntity
  8
0
 62
     7
100
AcDbLine
 10
16.326926
 20
8.423847999999999
 30
0.0
 11
15.469872
 21
7.265728999999999
 31
0.0
  0
LINE
  5
1DD
330
18
100
AcDbEntity
  8
0
 62
     7
100
AcDbLine
 10
15.469872
 20
7.265728999999999
 30
0.0
 11
14.501022
 21
6.076442
 31
0.0
  0
LINE
  5
1DE
330
18
100
AcDbEntity
  8
0
 62
     7
100
AcDbLine
 10
14.501022
 20
6.076442
 30
0.0
 11
13.493233
 21
5.027921
 31
0.0
  0
LINE
  5
1DF
330
18
100
AcDbEntity
  8
0
 62
     7
100
AcDbLine
 10
13.493233
 20
5.027921
 30
0.0
 11
12.451304
 21
4.131255999999999
 31
0.0
  0
LINE
  5
1E0
330
18
100
AcDbEntity
  8
0
 62
     7
100
AcDbLine
 10
12.451304
 20
4.131255999999999
 30
0.0
 11
11.376864
 21
3.367871
 31
0.0
  0
LINE
  5
1E1
330
18
100
AcDbEntity
  8
0
 62
     7
100
AcDbLine
 10
11.376864
 20
3.367871
 30
0.0
 11
10.275426
 21
2.67728
 31
0.0
  0
LINE
  5
1E2
330
18
100
AcDbEntity
  8
0
 62
     7
100
AcDbLine
 10
10.275426
 20
2.67728
 30
0.0
 11
9.147377
 21
2.054926
 31
0.0
  0
LINE
  5
1E3
330
18
100
AcDbEntity
  8
0
 62
     7
100
AcDbLine
 10
9.147377
 20
2.054926
 30
0.0
 11
7.990458999999999
 21
1.502599999999999
 31
0.0
  0
LINE
  5
1E4
330
18
100
AcDbEntity
  8
0
 62
     7
100
AcDbLine
 10
7.990458999999999
 20
1.502599999999999
 30
0.0
 11
6.796288
 21
1.027137999999999
 31
0.0
  0
LINE
  5
1E5
330
18
100
AcDbEntity
  8
0
 62
     7
100
AcDbLine
 10
6.796288
 20
1.027137999999999
 30
0.0
 11
5.564133999999999
 21
0.62919
 31
0.0
  0
LINE
  5
1E6
330
18
100
AcDbEntity
  8
0
 62
     7
100
AcDbLine
 10
5.564133999999999
 20
0.62919
 30
0.0
 11
4.314748
 21
0.31311
 31
0.0
  0
LINE
  5
1E7
330
18
100
AcDbEntity
  8
0
 62
     7
100
AcDbLine
 10
4.314748
 20
0.31311
 30
0.0
 11
3.13134
 21
0.096842
 31
0.0
  0
LINE
  5
1E8
330
18
100
AcDbEntity
  8
0
 62
     7
100
AcDbLine
 10
3.13134
 20
0.096842
 30
0.0
 11
2.02272
 21
-0.017822
 31
0.0
  0
LINE
  5
1E9
330
18
100
AcDbEntity
  8
0
 62
     7
100
AcDbLine
 10
2.02272
 20
-0.017822
 30
0.0
 11
0.9504370000000001
 21
-0.037231
 31
0.0
  0
LINE
  5
1EA
330
18
100
AcDbEntity
  8
0
 62
     7
100
AcDbLine
 10
0.9504370000000001
 20
-0.037231
 30
0.0
 11
-0.258117
 21
0.010111
 31
0.0
  0
LINE
  5
1EB
330
18
100
AcDbEntity
  8
0
 62
     7
100
AcDbLine
 10
-0.258117
 20
0.010111
 30
0.0
 11
-1.623836
 21
0.120707
 31
0.0
  0
LINE
  5
1EC
330
18
100
AcDbEntity
  8
0
 62
     7
100
AcDbLine
 10
-1.623836
 20
0.120707
 30
0.0
 11
-3.110485999999999
 21
0.298461
 31
0.0
  0
LINE
  5
1ED
330
18
100
AcDbEntity
  8
0
 62
     7
100
AcDbLine
 10
-3.110485999999999
 20
0.298461
 30
0.0
 11
-4.536101
 21
0.5627430000000001
 31
0.0
  0
LINE
  5
1EE
330
18
100
AcDbEntity
  8
0
 62
     7
100
AcDbLine
 10
-4.536101
 20
0.5627430000000001
 30
0.0
 11
-5.875555
 21
0.916257
 31
0.0
  0
LINE
  5
1F3
330
18
100
AcDbEntity
  8
0
 62
     7
100
AcDbLine
 10
-3.457694
 20
38.493558
 30
0.0
 11
-5.908351
 21
37.880786
 31
0.0
  0
LINE
  5
1F4
330
18
100
AcDbEntity
  8
0
 62
     7
100
AcDbLine
 10
-5.908351
 20
37.880786
 30
0.0
 11
-9.702856999999999
 21
35.977939
 31
0.0
  0
ATTDEF
  5
1FA
330
18
100
AcDbEntity
  8
0
100
AcDbText
 10
0.584144474843356
 20
-0.0003448116713969
 30
0.0
 40
5.0
  1
117/6
100
AcDbAttributeDefinition
  3

  2
CODICE
 70
     3
  0
ATTDEF
  5
1FB
330
18
100
AcDbEntity
  8
0
100
AcDbText
 10
0.584144474843356
 20
-8.333678145004729
 30
0.0
 40
5.0
  1
1
100
AcDbAttributeDefinition
  3

  2
QUANT
 70
     3
  0
ATTDEF
  5
1FC
330
18
100
AcDbEntity
  8
0
100
AcDbText
 10
0.584144474843356
 20
-16.66701147833806
 30
0.0
 40
5.0
  1
0
100
AcDbAttributeDefinition
  3

  2
LUNG
 70
     3
  0
REGION
  5
202
330
18
100
AcDbEntity
  8
0
  6
Continuous
100
AcDbModelerGeometry
 70
     1
  1
koo nn n o          
  1
ni ^ *+0;:,4 ^ *+0\^ [ nh ^ LR nmqoqnqfnj QK o  
  1
mjqlffffffffffffff fqfffffffffffffffj:rooh n:rono 
  1
=0;& {rn {n {rn {rn |
  1
3*2/ {rn {rn {m {o |
  1
,7:33 {rn {rn {rn {l {rn {n |
  1
9><: {rn {rn {k {m {rn {j 90-(>-; ;0*=3: 0*+ |
  1
300/ {rn {rn {i {l |
  1
/3>1:r,*-9><: {rn oqonoklnmhjohjjkjihf nfqfnohhnfhflijgjg o o o n n o o 90-(>-;@) V V V V |
  1
<0:;8: {rn {i {i {rn {h 90-(>-; {k {rn |
  1
:;8: {rn {g {g {i {f 90-(>-; |
  1
):-+:' {rn {h {no |
  1
:336/,:r<*-): {rn oqonoklnmhjohjjngkkm nfqfnohhnfhflijfok o o o n moqojnhlkhkjohmllk o o n V V |
  1
/061+ {rn moqoimniiomonkhgjl nfqfnohhnfhflijfok o |
  0
ENDSEC
  0
SECTION
  2
OBJECTS
  0
DICTIONARY
  5
C
330
0
100
AcDbDictionary
281
     1
  3
ACAD_COLOR
350
231
  3
ACAD_GROUP
350
D
  3
ACAD_LAYOUT
350
259
  3
ACAD_MATERIAL
350
207
  3
ACAD_MLEADERSTYLE
350
256
  3
ACAD_MLINESTYLE
350
1B
  3
ACAD_PLOTSETTINGS
350
25A
  3
ACAD_PLOTSTYLENAME
350
205
  3
ACAD_SCALELIST
350
234
  3
ACAD_TABLESTYLE
350
232
  3
ACAD_VISUALSTYLE
350
220
  3
ACDB_RECOMPOSE_DATA
350
2BD
  3
AcDbVariableDictionary
350
2BE
  3
AEC_PROPERTY_SET_DEFS
350
29E
  3
DWGPROPS
350
2D6
  3
qs_topprt_diz
350
262
  3
QSCATDICT
350
25F
  3
QsPallStyleDict
350
261
  3
TopSpotLight
350
269
  0
DICTIONARY
  5
29F
330
E
100
AcDbDictionary
280
     1
281
     1
  3
ADSK_XREC_LAYER_RECONCILED
360
2A0
  0
DICTIONARY
  5
2A1
330
264
100
AcDbDictionary
280
     1
281
     1
  3
ADSK_XREC_LAYER_RECONCILED
360
2A2
  0
DICTIONARY
  5
2A3
330
289
100
AcDbDictionary
280
     1
281
     1
  3
ADSK_XREC_LAYER_RECONCILED
360
2A4
  0
DICTIONARY
  5
2A5
330
28A
100
AcDbDictionary
280
     1
281
     1
  3
ADSK_XREC_LAYER_RECONCILED
360
2A6
  0
DICTIONARY
  5
2A7
330
28B
100
AcDbDictionary
280
     1
281
     1
  3
ADSK_XREC_LAYER_RECONCILED
360
2A8
  0
DICTIONARY
  5
231
102
{ACAD_REACTORS
330
C
102
}
330
C
100
AcDbDictionary
281
     1
  0
DICTIONARY
  5
D
102
{ACAD_REACTORS
330
C
102
}
330
C
100
AcDbDictionary
281
     1
  0
DICTIONARY
  5
259
102
{ACAD_REACTORS
330
C
102
}
330
C
100
AcDbDictionary
281
     1
  3
Layout1
350
25C
  3
Model
350
25B
  0
DICTIONARY
  5
207
102
{ACAD_REACTORS
330
C
102
}
330
C
100
AcDbDictionary
281
     1
  3
ByBlock
350
210
  3
ByLayer
350
208
  3
Global
350
218
  0
DICTIONARY
  5
256
102
{ACAD_REACTORS
330
C
102
}
330
C
100
AcDbDictionary
281
     1
  3
Standard
350
257
  0
DICTIONARY
  5
1B
102
{ACAD_REACTORS
330
C
102
}
330
C
100
AcDbDictionary
281
     1
  3
STANDARD
350
1C
  0
DICTIONARY
  5
25A
102
{ACAD_REACTORS
330
C
102
}
330
C
100
AcDbDictionary
281
     1
  0
ACDBDICTIONARYWDFLT
  5
205
102
{ACAD_REACTORS
330
C
102
}
330
C
100
AcDbDictionary
281
     1
  3
Normal
350
206
100
AcDbDictionaryWithDefault
340
206
  0
DICTIONARY
  5
234
102
{ACAD_REACTORS
330
C
102
}
330
C
100
AcDbDictionary
281
     1
  3
A0
350
235
  3
A1
350
236
  3
A2
350
237
  3
A3
350
238
  3
A4
350
239
  3
A5
350
23A
  3
A6
350
23B
  3
A7
350
23C
  3
A8
350
23D
  3
A9
350
23E
  3
B0
350
23F
  3
B1
350
240
  3
B2
350
241
  3
B3
350
242
  3
B4
350
243
  3
B5
350
244
  3
B6
350
245
  3
B7
350
246
  3
B8
350
247
  3
B9
350
248
  3
C0
350
249
  3
C1
350
24A
  3
C2
350
24B
  3
C3
350
24C
  3
C4
350
24D
  3
C5
350
24E
  3
C6
350
24F
  3
C7
350
250
  3
C8
350
251
  3
C9
350
252
  3
D0
350
253
  3
D1
350
254
  3
D2
350
255
  0
DICTIONARY
  5
232
102
{ACAD_REACTORS
330
C
102
}
330
C
100
AcDbDictionary
281
     1
  3
Standard
350
233
  0
DICTIONARY
  5
220
102
{ACAD_REACTORS
330
C
102
}
330
C
100
AcDbDictionary
281
     1
  3
2dWireframe
350
226
  3
3D Hidden
350
228
  3
3dWireframe
350
227
  3
Basic
350
225
  3
Brighten
350
22C
  3
ColorChange
350
230
  3
Conceptual
350
229
  3
Dim
350
22B
  3
Facepattern
350
22F
  3
Flat
350
221
  3
FlatWithEdges
350
222
  3
Gouraud
350
223
  3
GouraudWithEdges
350
224
  3
Linepattern
350
22E
  3
Realistic
350
22A
  3
Thicken
350
22D
  0
XRECORD
  5
2BD
102
{ACAD_REACTORS
330
C
102
}
330
C
100
AcDbXrecord
280
     1
 90
        1
330
233
  0
DICTIONARY
  5
2BE
102
{ACAD_REACTORS
330
C
102
}
330
C
100
AcDbDictionary
281
     1
  3
CANNOSCALE
350
2C3
  3
CMLEADERSTYLE
350
2C0
  3
CTABLESTYLE
350
2BF
  3
DIMASSOC
350
2D4
  3
DRAWORDERCTL
350
2C1
  3
INDEXCTL
350
2D3
  3
LAYEREVAL
350
2C5
  3
LAYERNOTIFY
350
2C6
  3
LIGHTINGUNITS
350
2C4
  3
MSLTSCALE
350
2C2
  3
SORTENTS
350
2D2
  0
DICTIONARY
  5
29E
102
{ACAD_REACTORS
330
C
102
}
330
C
100
AcDbDictionary
281
     1
  0
XRECORD
  5
2D6
102
{ACAD_REACTORS
330
C
102
}
330
C
100
AcDbXrecord
280
     1
  1
DWGPROPS COOKIE
  2

  3

  4

  6

  7

  8
GriggioM
  9

300
=
301
=
302
=
303
=
304
=
305
=
306
=
307
=
308
=
309
=
 40
0.0016154166666667
 41
2451197.606995451
 42
2455131.693922674
  1

 90
        0
  0
DICTIONARY
  5
262
102
{ACAD_REACTORS
330
C
102
}
330
C
100
AcDbDictionary
281
     1
  3
UCNT
350
263
  0
DICTIONARY
  5
25F
102
{ACAD_REACTORS
330
C
102
}
330
C
100
AcDbDictionary
281
     1
  3
DEFAULT
350
260
  0
DICTIONARY
  5
261
102
{ACAD_REACTORS
330
C
102
}
330
C
100
AcDbDictionary
281
     1
  0
DICTIONARY
  5
269
102
{ACAD_REACTORS
330
C
102
}
330
C
100
AcDbDictionary
281
     1
  3
colors
350
26A
  0
XRECORD
  5
2A0
102
{ACAD_REACTORS
330
29F
102
}
330
29F
100
AcDbXrecord
280
     1
290
     1
  0
XRECORD
  5
2A2
102
{ACAD_REACTORS
330
2A1
102
}
330
2A1
100
AcDbXrecord
280
     1
290
     1
  0
XRECORD
  5
2A4
102
{ACAD_REACTORS
330
2A3
102
}
330
2A3
100
AcDbXrecord
280
     1
290
     1
  0
XRECORD
  5
2A6
102
{ACAD_REACTORS
330
2A5
102
}
330
2A5
100
AcDbXrecord
280
     1
290
     1
  0
XRECORD
  5
2A8
102
{ACAD_REACTORS
330
2A7
102
}
330
2A7
100
AcDbXrecord
280
     1
290
     1
  0
LAYOUT
  5
25C
102
{ACAD_XDICTIONARY
360
2DD
102
}
102
{ACAD_REACTORS
330
259
102
}
330
259
100
AcDbPlotSettings
  1

  2
\\nas\db$\ImpCAD\Stampa\PC3\Infotec.pc3
  4

  6

 40
0.0
 41
0.0
 42
0.0
 43
0.0
 44
0.0
 45
0.0
 46
0.0
 47
0.0
 48
0.0
 49
0.0
140
0.0
141
0.0
142
1.0
143
1.0
 70
   688
 72
     0
 73
     0
 74
     5
  7

 75
    16
147
1.0
148
0.0
149
0.0
100
AcDbLayout
  1
Layout1
 70
     1
 71
     1
 10
0.0
 20
0.0
 11
12.0
 21
9.0
 12
0.0
 22
0.0
 32
0.0
 14
1.000000000000000E+20
 24
1.000000000000000E+20
 34
1.000000000000000E+20
 15
-1.000000000000000E+20
 25
-1.000000000000000E+20
 35
-1.000000000000000E+20
146
0.0
 13
0.0
 23
0.0
 33
0.0
 16
1.0
 26
0.0
 36
0.0
 17
0.0
 27
1.0
 37
0.0
 76
     0
330
15
  0
LAYOUT
  5
25B
102
{ACAD_XDICTIONARY
360
2DB
102
}
102
{ACAD_REACTORS
330
259
102
}
330
259
100
AcDbPlotSettings
  1

  2
\\nas\db$\ImpCAD\Stampa\PC3\Infotec.pc3
  4

  6

 40
0.0
 41
0.0
 42
0.0
 43
0.0
 44
0.0
 45
0.0
 46
0.0
 47
0.0
 48
0.0
 49
0.0
140
0.0
141
0.0
142
1.0
143
1.0
 70
  1712
 72
     0
 73
     0
 74
     0
  7

 75
     0
147
1.0
148
0.0
149
0.0
100
AcDbLayout
  1
Model
 70
     1
 71
     0
 10
0.0
 20
0.0
 11
12.0
 21
9.0
 12
0.0
 22
0.0
 32
0.0
 14
0.0
 24
0.0
 34
0.0
 15
0.0
 25
0.0
 35
0.0
146
0.0
 13
0.0
 23
0.0
 33
0.0
 16
1.0
 26
0.0
 36
0.0
 17
0.0
 27
1.0
 37
0.0
 76
     0
330
18
331
203
  0
MATERIAL
  5
210
102
{ACAD_XDICTIONARY
360
211
102
}
102
{ACAD_REACTORS
330
207
102
}
330
207
100
AcDbMaterial
  1
ByBlock
 72
     0
 43
0.0208333333333333
 43
0.0
 43
0.0
 43
0.0
 43
0.0
 43
0.0208333333333333
 43
0.0
 43
0.0
 43
0.0
 43
0.0
 43
1.0
 43
0.0
 43
0.0
 43
0.0
 43
0.0
 43
1.0
 77
     0
 47
0.0208333333333333
 47
0.0
 47
0.0
 47
0.0
 47
0.0
 47
0.0208333333333333
 47
0.0
 47
0.0
 47
0.0
 47
0.0
 47
1.0
 47
0.0
 47
0.0
 47
0.0
 47
0.0
 47
1.0
171
     0
 49
0.0208333333333333
 49
0.0
 49
0.0
 49
0.0
 49
0.0
 49
0.0208333333333333
 49
0.0
 49
0.0
 49
0.0
 49
0.0
 49
1.0
 49
0.0
 49
0.0
 49
0.0
 49
0.0
 49
1.0
175
     0
142
0.0208333333333333
142
0.0
142
0.0
142
0.0
142
0.0
142
0.0208333333333333
142
0.0
142
0.0
142
0.0
142
0.0
142
1.0
142
0.0
142
0.0
142
0.0
142
0.0
142
1.0
179
     0
144
0.0208333333333333
144
0.0
144
0.0
144
0.0
144
0.0
144
0.0208333333333333
144
0.0
144
0.0
144
0.0
144
0.0
144
1.0
144
0.0
144
0.0
144
0.0
144
0.0
144
1.0
147
0.0208333333333333
147
0.0
147
0.0
147
0.0
147
0.0
147
0.0208333333333333
147
0.0
147
0.0
147
0.0
147
0.0
147
1.0
147
0.0
147
0.0
147
0.0
147
0.0
147
1.0
  0
MATERIAL
  5
208
102
{ACAD_XDICTIONARY
360
209
102
}
102
{ACAD_REACTORS
330
207
102
}
330
207
100
AcDbMaterial
  1
ByLayer
 72
     0
 43
0.0208333333333333
 43
0.0
 43
0.0
 43
0.0
 43
0.0
 43
0.0208333333333333
 43
0.0
 43
0.0
 43
0.0
 43
0.0
 43
1.0
 43
0.0
 43
0.0
 43
0.0
 43
0.0
 43
1.0
 77
     0
 47
0.0208333333333333
 47
0.0
 47
0.0
 47
0.0
 47
0.0
 47
0.0208333333333333
 47
0.0
 47
0.0
 47
0.0
 47
0.0
 47
1.0
 47
0.0
 47
0.0
 47
0.0
 47
0.0
 47
1.0
171
     0
 49
0.0208333333333333
 49
0.0
 49
0.0
 49
0.0
 49
0.0
 49
0.0208333333333333
 49
0.0
 49
0.0
 49
0.0
 49
0.0
 49
1.0
 49
0.0
 49
0.0
 49
0.0
 49
0.0
 49
1.0
175
     0
142
0.0208333333333333
142
0.0
142
0.0
142
0.0
142
0.0
142
0.0208333333333333
142
0.0
142
0.0
142
0.0
142
0.0
142
1.0
142
0.0
142
0.0
142
0.0
142
0.0
142
1.0
179
     0
144
0.0208333333333333
144
0.0
144
0.0
144
0.0
144
0.0
144
0.0208333333333333
144
0.0
144
0.0
144
0.0
144
0.0
144
1.0
144
0.0
144
0.0
144
0.0
144
0.0
144
1.0
147
0.0208333333333333
147
0.0
147
0.0
147
0.0
147
0.0
147
0.0208333333333333
147
0.0
147
0.0
147
0.0
147
0.0
147
1.0
147
0.0
147
0.0
147
0.0
147
0.0
147
1.0
  0
MATERIAL
  5
218
102
{ACAD_XDICTIONARY
360
219
102
}
102
{ACAD_REACTORS
330
207
102
}
330
207
100
AcDbMaterial
  1
Global
 72
     0
 43
0.0208333333333333
 43
0.0
 43
0.0
 43
0.0
 43
0.0
 43
0.0208333333333333
 43
0.0
 43
0.0
 43
0.0
 43
0.0
 43
1.0
 43
0.0
 43
0.0
 43
0.0
 43
0.0
 43
1.0
 77
     0
 47
0.0208333333333333
 47
0.0
 47
0.0
 47
0.0
 47
0.0
 47
0.0208333333333333
 47
0.0
 47
0.0
 47
0.0
 47
0.0
 47
1.0
 47
0.0
 47
0.0
 47
0.0
 47
0.0
 47
1.0
171
     0
 49
0.0208333333333333
 49
0.0
 49
0.0
 49
0.0
 49
0.0
 49
0.0208333333333333
 49
0.0
 49
0.0
 49
0.0
 49
0.0
 49
1.0
 49
0.0
 49
0.0
 49
0.0
 49
0.0
 49
1.0
175
     0
142
0.0208333333333333
142
0.0
142
0.0
142
0.0
142
0.0
142
0.0208333333333333
142
0.0
142
0.0
142
0.0
142
0.0
142
1.0
142
0.0
142
0.0
142
0.0
142
0.0
142
1.0
179
     0
144
0.0208333333333333
144
0.0
144
0.0
144
0.0
144
0.0
144
0.0208333333333333
144
0.0
144
0.0
144
0.0
144
0.0
144
1.0
144
0.0
144
0.0
144
0.0
144
0.0
144
1.0
147
0.0208333333333333
147
0.0
147
0.0
147
0.0
147
0.0
147
0.0208333333333333
147
0.0
147
0.0
147
0.0
147
0.0
147
1.0
147
0.0
147
0.0
147
0.0
147
0.0
147
1.0
  0
MLEADERSTYLE
  5
257
102
{ACAD_REACTORS
330
256
102
}
330
256
100
AcDbMLeaderStyle
170
     2
171
     1
172
     0
 90
        2
 40
0.0
 41
0.0
173
     1
 91
-1056964608
340
12
 92
       -2
290
     1
 42
0.09
291
     1
 43
0.36
  3
Standard
 44
0.18
300

342
F
174
     1
178
     6
175
     1
176
     0
 93
-1056964608
 45
0.18
292
     0
297
     0
 46
0.18
 94
-1056964608
 47
1.0
 49
1.0
140
1.0
293
     1
141
0.0
294
     1
177
     0
142
1.0
295
     0
296
     0
143
0.125
1001
ACAD_MLEADERVER
1070
     2
  0
MLINESTYLE
  5
1C
102
{ACAD_REACTORS
330
1B
102
}
330
1B
100
AcDbMlineStyle
  2
STANDARD
 70
     0
  3

 62
   256
 51
90.0
 52
90.0
 71
     2
 49
0.5
 62
   256
  6
BYLAYER
 49
-0.5
 62
   256
  6
BYLAYER
  0
ACDBPLACEHOLDER
  5
206
102
{ACAD_REACTORS
330
205
102
}
330
205
  0
SCALE
  5
235
102
{ACAD_REACTORS
330
234
102
}
330
234
100
AcDbScale
 70
     0
300
1:1
140
1.0
141
1.0
290
     1
  0
SCALE
  5
236
102
{ACAD_REACTORS
330
234
102
}
330
234
100
AcDbScale
 70
     0
300
1:2
140
1.0
141
2.0
290
     0
  0
SCALE
  5
237
102
{ACAD_REACTORS
330
234
102
}
330
234
100
AcDbScale
 70
     0
300
1:4
140
1.0
141
4.0
290
     0
  0
SCALE
  5
238
102
{ACAD_REACTORS
330
234
102
}
330
234
100
AcDbScale
 70
     0
300
1:5
140
1.0
141
5.0
290
     0
  0
SCALE
  5
239
102
{ACAD_REACTORS
330
234
102
}
330
234
100
AcDbScale
 70
     0
300
1:8
140
1.0
141
8.0
290
     0
  0
SCALE
  5
23A
102
{ACAD_REACTORS
330
234
102
}
330
234
100
AcDbScale
 70
     0
300
1:10
140
1.0
141
10.0
290
     0
  0
SCALE
  5
23B
102
{ACAD_REACTORS
330
234
102
}
330
234
100
AcDbScale
 70
     0
300
1:16
140
1.0
141
16.0
290
     0
  0
SCALE
  5
23C
102
{ACAD_REACTORS
330
234
102
}
330
234
100
AcDbScale
 70
     0
300
1:20
140
1.0
141
20.0
290
     0
  0
SCALE
  5
23D
102
{ACAD_REACTORS
330
234
102
}
330
234
100
AcDbScale
 70
     0
300
1:30
140
1.0
141
30.0
290
     0
  0
SCALE
  5
23E
102
{ACAD_REACTORS
330
234
102
}
330
234
100
AcDbScale
 70
     0
300
1:40
140
1.0
141
40.0
290
     0
  0
SCALE
  5
23F
102
{ACAD_REACTORS
330
234
102
}
330
234
100
AcDbScale
 70
     0
300
1:50
140
1.0
141
50.0
290
     0
  0
SCALE
  5
240
102
{ACAD_REACTORS
330
234
102
}
330
234
100
AcDbScale
 70
     0
300
1:100
140
1.0
141
100.0
290
     0
  0
SCALE
  5
241
102
{ACAD_REACTORS
330
234
102
}
330
234
100
AcDbScale
 70
     0
300
2:1
140
2.0
141
1.0
290
     0
  0
SCALE
  5
242
102
{ACAD_REACTORS
330
234
102
}
330
234
100
AcDbScale
 70
     0
300
4:1
140
4.0
141
1.0
290
     0
  0
SCALE
  5
243
102
{ACAD_REACTORS
330
234
102
}
330
234
100
AcDbScale
 70
     0
300
8:1
140
8.0
141
1.0
290
     0
  0
SCALE
  5
244
102
{ACAD_REACTORS
330
234
102
}
330
234
100
AcDbScale
 70
     0
300
10:1
140
10.0
141
1.0
290
     0
  0
SCALE
  5
245
102
{ACAD_REACTORS
330
234
102
}
330
234
100
AcDbScale
 70
     0
300
100:1
140
100.0
141
1.0
290
     0
  0
SCALE
  5
246
102
{ACAD_REACTORS
330
234
102
}
330
234
100
AcDbScale
 70
     0
300
1/128" = 1'-0"
140
0.0078125
141
12.0
290
     0
  0
SCALE
  5
247
102
{ACAD_REACTORS
330
234
102
}
330
234
100
AcDbScale
 70
     0
300
1/64" = 1'-0"
140
0.015625
141
12.0
290
     0
  0
SCALE
  5
248
102
{ACAD_REACTORS
330
234
102
}
330
234
100
AcDbScale
 70
     0
300
1/32" = 1'-0"
140
0.03125
141
12.0
290
     0
  0
SCALE
  5
249
102
{ACAD_REACTORS
330
234
102
}
330
234
100
AcDbScale
 70
     0
300
1/16" = 1'-0"
140
0.0625
141
12.0
290
     0
  0
SCALE
  5
24A
102
{ACAD_REACTORS
330
234
102
}
330
234
100
AcDbScale
 70
     0
300
3/32" = 1'-0"
140
0.09375
141
12.0
290
     0
  0
SCALE
  5
24B
102
{ACAD_REACTORS
330
234
102
}
330
234
100
AcDbScale
 70
     0
300
1/8" = 1'-0"
140
0.125
141
12.0
290
     0
  0
SCALE
  5
24C
102
{ACAD_REACTORS
330
234
102
}
330
234
100
AcDbScale
 70
     0
300
3/16" = 1'-0"
140
0.1875
141
12.0
290
     0
  0
SCALE
  5
24D
102
{ACAD_REACTORS
330
234
102
}
330
234
100
AcDbScale
 70
     0
300
1/4" = 1'-0"
140
0.25
141
12.0
290
     0
  0
SCALE
  5
24E
102
{ACAD_REACTORS
330
234
102
}
330
234
100
AcDbScale
 70
     0
300
3/8" = 1'-0"
140
0.375
141
12.0
290
     0
  0
SCALE
  5
24F
102
{ACAD_REACTORS
330
234
102
}
330
234
100
AcDbScale
 70
     0
300
1/2" = 1'-0"
140
0.5
141
12.0
290
     0
  0
SCALE
  5
250
102
{ACAD_REACTORS
330
234
102
}
330
234
100
AcDbScale
 70
     0
300
3/4" = 1'-0"
140
0.75
141
12.0
290
     0
  0
SCALE
  5
251
102
{ACAD_REACTORS
330
234
102
}
330
234
100
AcDbScale
 70
     0
300
1" = 1'-0"
140
1.0
141
12.0
290
     0
  0
SCALE
  5
252
102
{ACAD_REACTORS
330
234
102
}
330
234
100
AcDbScale
 70
     0
300
1-1/2" = 1'-0"
140
1.5
141
12.0
290
     0
  0
SCALE
  5
253
102
{ACAD_REACTORS
330
234
102
}
330
234
100
AcDbScale
 70
     0
300
3" = 1'-0"
140
3.0
141
12.0
290
     0
  0
SCALE
  5
254
102
{ACAD_REACTORS
330
234
102
}
330
234
100
AcDbScale
 70
     0
300
6" = 1'-0"
140
6.0
141
12.0
290
     0
  0
SCALE
  5
255
102
{ACAD_REACTORS
330
234
102
}
330
234
100
AcDbScale
 70
     0
300
1'-0" = 1'-0"
140
12.0
141
12.0
290
     0
  0
TABLESTYLE
  5
233
102
{ACAD_XDICTIONARY
360
2BB
102
}
102
{ACAD_REACTORS
330
232
102
}
330
232
100
AcDbTableStyle
  3
Standard
 70
     0
 71
     0
 40
0.06
 41
0.06
280
     0
281
     0
  7
STANDARD
140
0.18
170
     2
 62
     0
 63
     7
283
     0
274
    -2
284
     1
 64
     0
275
    -2
285
     1
 65
     0
276
    -2
286
     1
 66
     0
277
    -2
287
     1
 67
     0
278
    -2
288
     1
 68
     0
279
    -2
289
     1
 69
     0
  7
STANDARD
140
0.25
170
     5
 62
     0
 63
     7
283
     0
274
    -2
284
     1
 64
     0
275
    -2
285
     1
 65
     0
276
    -2
286
     1
 66
     0
277
    -2
287
     1
 67
     0
278
    -2
288
     1
 68
     0
279
    -2
289
     1
 69
     0
  7
STANDARD
140
0.18
170
     5
 62
     0
 63
     7
283
     0
274
    -2
284
     1
 64
     0
275
    -2
285
     1
 65
     0
276
    -2
286
     1
 66
     0
277
    -2
287
     1
 67
     0
278
    -2
288
     1
 68
     0
279
    -2
289
     1
 69
     0
  0
VISUALSTYLE
  5
226
102
{ACAD_REACTORS
330
220
102
}
330
220
100
AcDbVisualStyle
  2
2dWireframe
 70
     4
 71
     0
 72
     2
 73
     0
 90
        0
 40
-0.6
 41
-30.0
 62
     5
 63
     7
 74
     1
 91
        4
 64
     7
 65
   257
 75
     1
175
     1
 42
1.0
 92
        0
 66
   257
 43
1.0
 76
     1
 77
     6
 78
     2
 67
     7
 79
     5
170
     0
171
     0
290
     0
174
     0
 93
        1
 44
0.0
173
     0
291
     0
 45
0.0
1001
ACAD
1000
AcDbSavedByObjectVersion
1070
     0
  0
VISUALSTYLE
  5
228
102
{ACAD_REACTORS
330
220
102
}
330
220
100
AcDbVisualStyle
  2
3D Hidden
 70
     6
 71
     1
 72
     2
 73
     2
 90
        0
 40
-0.6
 41
-30.0
 62
     5
 63
     7
 74
     2
 91
        2
 64
     7
 65
   257
 75
     2
175
     1
 42
40.0
 92
        0
 66
   257
 43
1.0
 76
     1
 77
     6
 78
     2
 67
     7
 79
     3
170
     0
171
     0
290
     0
174
     0
 93
        1
 44
0.0
173
     0
291
     0
 45
0.0
1001
ACAD
1000
AcDbSavedByObjectVersion
1070
     0
  0
VISUALSTYLE
  5
227
102
{ACAD_REACTORS
330
220
102
}
330
220
100
AcDbVisualStyle
  2
3dWireframe
 70
     5
 71
     0
 72
     2
 73
     0
 90
        0
 40
-0.6
 41
-30.0
 62
     5
 63
     7
 74
     1
 91
        4
 64
     7
 65
   257
 75
     1
175
     1
 42
1.0
 92
        0
 66
   257
 43
1.0
 76
     1
 77
     6
 78
     2
 67
     7
 79
     5
170
     0
171
     0
290
     0
174
     0
 93
        1
 44
0.0
173
     0
291
     0
 45
0.0
1001
ACAD
1000
AcDbSavedByObjectVersion
1070
     0
  0
VISUALSTYLE
  5
225
102
{ACAD_REACTORS
330
220
102
}
330
220
100
AcDbVisualStyle
  2
Basic
 70
     7
 71
     1
 72
     0
 73
     1
 90
        0
 40
-0.6
 41
-30.0
 62
     5
 63
     7
 74
     0
 91
        4
 64
     7
 65
   257
 75
     1
175
     1
 42
1.0
 92
        8
 66
     7
 43
1.0
 76
     1
 77
     6
 78
     2
 67
     7
 79
     5
170
     0
171
     0
290
     0
174
     0
 93
        1
 44
0.0
173
     0
291
     1
 45
0.0
1001
ACAD
1000
AcDbSavedByObjectVersion
1070
     0
  0
VISUALSTYLE
  5
22C
102
{ACAD_REACTORS
330
220
102
}
330
220
100
AcDbVisualStyle
  2
Brighten
 70
    12
 71
     2
 72
     2
 73
     0
 90
        0
 40
-0.6
 41
-30.0
 62
     5
 63
     7
 74
     1
 91
        4
 64
     7
 65
   257
 75
     1
175
     1
 42
1.0
 92
        8
 66
     7
 43
1.0
 76
     1
 77
     6
 78
     2
 67
     7
 79
     5
170
     0
171
     0
290
     0
174
     0
 93
        1
 44
50.0
173
     0
291
     1
 45
0.0
1001
ACAD
1000
AcDbSavedByObjectVersion
1070
     0
  0
VISUALSTYLE
  5
230
102
{ACAD_REACTORS
330
220
102
}
330
220
100
AcDbVisualStyle
  2
ColorChange
 70
    16
 71
     2
 72
     2
 73
     3
 90
        0
 40
-0.6
 41
-30.0
 62
     5
 63
     8
 74
     1
 91
        4
 64
     7
 65
   257
 75
     1
175
     1
 42
1.0
 92
        8
 66
     8
 43
1.0
 76
     1
 77
     6
 78
     2
 67
     7
 79
     5
170
     0
171
     0
290
     0
174
     0
 93
        1
 44
0.0
173
     0
291
     1
 45
0.0
1001
ACAD
1000
AcDbSavedByObjectVersion
1070
     0
  0
VISUALSTYLE
  5
229
102
{ACAD_REACTORS
330
220
102
}
330
220
100
AcDbVisualStyle
  2
Conceptual
 70
     9
 71
     3
 72
     2
 73
     0
 90
        0
 40
-0.6
 41
-30.0
 62
     5
 63
     7
 74
     2
 91
        2
 64
     7
 65
   257
 75
     1
175
     1
 42
40.0
 92
        8
 66
     7
 43
1.0
 76
     1
 77
     6
 78
     2
 67
     7
 79
     3
170
     0
171
     0
290
     0
174
     0
 93
        1
 44
0.0
173
     0
291
     0
 45
0.0
1001
ACAD
1000
AcDbSavedByObjectVersion
1070
     0
  0
VISUALSTYLE
  5
22B
102
{ACAD_REACTORS
330
220
102
}
330
220
100
AcDbVisualStyle
  2
Dim
 70
    11
 71
     2
 72
     2
 73
     0
 90
        0
 40
-0.6
 41
-30.0
 62
     5
 63
     7
 74
     1
 91
        4
 64
     7
 65
   257
 75
     1
175
     1
 42
1.0
 92
        8
 66
     7
 43
1.0
 76
     1
 77
     6
 78
     2
 67
     7
 79
     5
170
     0
171
     0
290
     0
174
     0
 93
        1
 44
-50.0
173
     0
291
     1
 45
0.0
1001
ACAD
1000
AcDbSavedByObjectVersion
1070
     0
  0
VISUALSTYLE
  5
22F
102
{ACAD_REACTORS
330
220
102
}
330
220
100
AcDbVisualStyle
  2
Facepattern
 70
    15
 71
     2
 72
     2
 73
     0
 90
        0
 40
-0.6
 41
-30.0
 62
     5
 63
     7
 74
     1
 91
        4
 64
     7
 65
   257
 75
     1
175
     1
 42
1.0
 92
        8
 66
     7
 43
1.0
 76
     1
 77
     6
 78
     2
 67
     7
 79
     5
170
     0
171
     0
290
     0
174
     0
 93
        1
 44
0.0
173
     0
291
     1
 45
0.0
1001
ACAD
1000
AcDbSavedByObjectVersion
1070
     0
  0
VISUALSTYLE
  5
221
102
{ACAD_REACTORS
330
220
102
}
330
220
100
AcDbVisualStyle
  2
Flat
 70
     0
 71
     2
 72
     1
 73
     1
 90
        2
 40
-0.6
 41
30.0
 62
     5
 63
     7
 74
     0
 91
        4
 64
     7
 65
   257
 75
     1
175
     1
 42
1.0
 92
        8
 66
     7
 43
1.0
 76
     1
 77
     6
 78
     2
 67
     7
 79
     5
170
     0
171
     0
290
     0
174
     0
 93
       13
 44
0.0
173
     0
291
     1
 45
0.0
1001
ACAD
1000
AcDbSavedByObjectVersion
1070
     0
  0
VISUALSTYLE
  5
222
102
{ACAD_REACTORS
330
220
102
}
330
220
100
AcDbVisualStyle
  2
FlatWithEdges
 70
     1
 71
     2
 72
     1
 73
     1
 90
        2
 40
-0.6
 41
30.0
 62
     5
 63
     7
 74
     1
 91
        4
 64
     7
 65
   257
 75
     1
175
     1
 42
1.0
 92
        0
 66
   257
 43
1.0
 76
     1
 77
     6
 78
     2
 67
     7
 79
     5
170
     0
171
     0
290
     0
174
     0
 93
       13
 44
0.0
173
     0
291
     1
 45
0.0
1001
ACAD
1000
AcDbSavedByObjectVersion
1070
     0
  0
VISUALSTYLE
  5
223
102
{ACAD_REACTORS
330
220
102
}
330
220
100
AcDbVisualStyle
  2
Gouraud
 70
     2
 71
     2
 72
     2
 73
     1
 90
        2
 40
-0.6
 41
30.0
 62
     5
 63
     7
 74
     0
 91
        4
 64
     7
 65
   257
 75
     1
175
     1
 42
1.0
 92
        0
 66
     7
 43
1.0
 76
     1
 77
     6
 78
     2
 67
     7
 79
     5
170
     0
171
     0
290
     0
174
     0
 93
       13
 44
0.0
173
     0
291
     1
 45
0.0
1001
ACAD
1000
AcDbSavedByObjectVersion
1070
     0
  0
VISUALSTYLE
  5
224
102
{ACAD_REACTORS
330
220
102
}
330
220
100
AcDbVisualStyle
  2
GouraudWithEdges
 70
     3
 71
     2
 72
     2
 73
     1
 90
        2
 40
-0.6
 41
30.0
 62
     5
 63
     7
 74
     1
 91
        4
 64
     7
 65
   257
 75
     1
175
     1
 42
1.0
 92
        0
 66
   257
 43
1.0
 76
     1
 77
     6
 78
     2
 67
     7
 79
     5
170
     0
171
     0
290
     0
174
     0
 93
       13
 44
0.0
173
     0
291
     1
 45
0.0
1001
ACAD
1000
AcDbSavedByObjectVersion
1070
     0
  0
VISUALSTYLE
  5
22E
102
{ACAD_REACTORS
330
220
102
}
330
220
100
AcDbVisualStyle
  2
Linepattern
 70
    14
 71
     2
 72
     2
 73
     0
 90
        0
 40
-0.6
 41
-30.0
 62
     5
 63
     7
 74
     1
 91
        4
 64
     7
 65
   257
 75
     7
175
     7
 42
1.0
 92
        8
 66
     7
 43
1.0
 76
     1
 77
     6
 78
     2
 67
     7
 79
     5
170
     0
171
     0
290
     0
174
     0
 93
        1
 44
0.0
173
     0
291
     1
 45
0.0
1001
ACAD
1000
AcDbSavedByObjectVersion
1070
     0
  0
VISUALSTYLE
  5
22A
102
{ACAD_REACTORS
330
220
102
}
330
220
100
AcDbVisualStyle
  2
Realistic
 70
     8
 71
     2
 72
     2
 73
     0
 90
        0
 40
-0.6
 41
-30.0
 62
     5
 63
     7
 74
     1
 91
        0
 64
     7
 65
   257
 75
     1
175
     1
 42
1.0
 92
        8
 66
     8
 43
1.0
 76
     1
 77
     6
 78
     2
 67
     7
 79
     5
170
     0
171
     0
290
     0
174
     0
 93
       13
 44
0.0
173
     0
291
     0
 45
0.0
1001
ACAD
1000
AcDbSavedByObjectVersion
1070
     0
  0
VISUALSTYLE
  5
22D
102
{ACAD_REACTORS
330
220
102
}
330
220
100
AcDbVisualStyle
  2
Thicken
 70
    13
 71
     2
 72
     2
 73
     0
 90
        0
 40
-0.6
 41
-30.0
 62
     5
 63
     7
 74
     1
 91
        4
 64
     7
 65
   257
 75
     1
175
     1
 42
1.0
 92
       12
 66
     7
 43
1.0
 76
     1
 77
     6
 78
     2
 67
     7
 79
     5
170
     0
171
     0
290
     0
174
     0
 93
        1
 44
0.0
173
     0
291
     1
 45
0.0
1001
ACAD
1000
AcDbSavedByObjectVersion
1070
     0
  0
DICTIONARYVAR
  5
2C3
102
{ACAD_REACTORS
330
2BE
102
}
330
2BE
100
DictionaryVariables
280
     0
  1
1:1
  0
DICTIONARYVAR
  5
2C0
102
{ACAD_REACTORS
330
2BE
102
}
330
2BE
100
DictionaryVariables
280
     0
  1
STANDARD
  0
DICTIONARYVAR
  5
2BF
102
{ACAD_REACTORS
330
2BE
102
}
330
2BE
100
DictionaryVariables
280
     0
  1
STANDARD
  0
DICTIONARYVAR
  5
2D4
102
{ACAD_REACTORS
330
2BE
102
}
330
2BE
100
DictionaryVariables
280
     0
  1
1
  0
DICTIONARYVAR
  5
2C1
102
{ACAD_REACTORS
330
2BE
102
}
330
2BE
100
DictionaryVariables
280
     0
  1
0
  0
DICTIONARYVAR
  5
2D3
102
{ACAD_REACTORS
330
2BE
102
}
330
2BE
100
DictionaryVariables
280
     0
  1
0
  0
DICTIONARYVAR
  5
2C5
102
{ACAD_REACTORS
330
2BE
102
}
330
2BE
100
DictionaryVariables
280
     0
  1
1
  0
DICTIONARYVAR
  5
2C6
102
{ACAD_REACTORS
330
2BE
102
}
330
2BE
100
DictionaryVariables
280
     0
  1
15
  0
DICTIONARYVAR
  5
2C4
102
{ACAD_REACTORS
330
2BE
102
}
330
2BE
100
DictionaryVariables
280
     0
  1
0
  0
DICTIONARYVAR
  5
2C2
102
{ACAD_REACTORS
330
2BE
102
}
330
2BE
100
DictionaryVariables
280
     0
  1
0
  0
DICTIONARYVAR
  5
2D2
102
{ACAD_REACTORS
330
2BE
102
}
330
2BE
100
DictionaryVariables
280
     0
  1
127
  0
XRECORD
  5
263
102
{ACAD_REACTORS
330
262
102
}
330
262
100
AcDbXrecord
280
     1
 91
        0
  0
ACDBQSCATEGORY
  5
260
102
{ACAD_REACTORS
330
25F
102
}
330
25F
100
AcQsCategory
 70
     1
300
DEFAULT
290
     1
291
     1
 90
        0
  0
XRECORD
  5
26A
102
{ACAD_REACTORS
330
269
102
}
330
269
100
AcDbXrecord
280
     1
 90
      202
 91
      144
  0
DICTIONARY
  5
2DD
330
25C
100
AcDbDictionary
280
     1
281
     1
  3
ACAD_XREC_ROUNDTRIP
360
2DE
  0
DICTIONARY
  5
2DB
330
25B
100
AcDbDictionary
280
     1
281
     1
  3
ACAD_XREC_ROUNDTRIP
360
2DC
  0
DICTIONARY
  5
211
330
210
100
AcDbDictionary
280
     1
281
     1
  3
ACAD_XREC_ROUNDTRIP
360
2D8
  3
BUMPTILE
360
213
  3
DIFFUSETILE
360
212
  3
OPACITYTILE
360
216
  3
REFLECTIONTILE
360
215
  3
REFRACTIONTILE
360
217
  3
SPECULARTILE
360
214
  0
DICTIONARY
  5
209
330
208
100
AcDbDictionary
280
     1
281
     1
  3
ACAD_XREC_ROUNDTRIP
360
2D7
  3
BUMPTILE
360
20B
  3
DIFFUSETILE
360
20A
  3
OPACITYTILE
360
20E
  3
REFLECTIONTILE
360
20D
  3
REFRACTIONTILE
360
20F
  3
SPECULARTILE
360
20C
  0
DICTIONARY
  5
219
330
218
100
AcDbDictionary
280
     1
281
     1
  3
ACAD_XREC_ROUNDTRIP
360
2D9
  3
BUMPTILE
360
21B
  3
DIFFUSETILE
360
21A
  3
OPACITYTILE
360
21E
  3
REFLECTIONTILE
360
21D
  3
REFRACTIONTILE
360
21F
  3
SPECULARTILE
360
21C
  0
DICTIONARY
  5
2BB
330
233
100
AcDbDictionary
280
     1
281
     1
  3
ACAD_ROUNDTRIP_2008_TABLESTYLE_CELLSTYLEMAP
360
2D5
  3
ACAD_XREC_ROUNDTRIP
360
2DA
  0
XRECORD
  5
2DE
102
{ACAD_REACTORS
330
2DD
102
}
330
2DD
100
AcDbXrecord
280
     1
102
SHADEPLOT
 70
     0
102
SHADEPLOTRESLEVEL
 70
     2
102
SHADEPLOTCUSTOMDPI
 70
   300
  0
XRECORD
  5
2DC
102
{ACAD_REACTORS
330
2DB
102
}
330
2DB
100
AcDbXrecord
280
     1
102
SHADEPLOT
 70
     0
102
SHADEPLOTRESLEVEL
 70
     2
102
SHADEPLOTCUSTOMDPI
 70
   300
  0
XRECORD
  5
2D8
102
{ACAD_REACTORS
330
211
102
}
330
211
100
AcDbXrecord
280
     1
102
MATERIAL
148
0.0
149
0.0
149
0.0
 93
        0
 94
      127
282
     0
 72
     0
 77
     0
171
     0
175
     0
179
     0
273
     0
  0
XRECORD
  5
213
102
{ACAD_REACTORS
330
211
102
}
330
211
100
AcDbXrecord
280
     1
270
     1
271
     1
  0
XRECORD
  5
212
102
{ACAD_REACTORS
330
211
102
}
330
211
100
AcDbXrecord
280
     1
270
     1
271
     1
  0
XRECORD
  5
216
102
{ACAD_REACTORS
330
211
102
}
330
211
100
AcDbXrecord
280
     1
270
     1
271
     1
  0
XRECORD
  5
215
102
{ACAD_REACTORS
330
211
102
}
330
211
100
AcDbXrecord
280
     1
270
     1
271
     1
  0
XRECORD
  5
217
102
{ACAD_REACTORS
330
211
102
}
330
211
100
AcDbXrecord
280
     1
270
     1
271
     1
  0
XRECORD
  5
214
102
{ACAD_REACTORS
330
211
102
}
330
211
100
AcDbXrecord
280
     1
270
     1
271
     1
  0
XRECORD
  5
2D7
102
{ACAD_REACTORS
330
209
102
}
330
209
100
AcDbXrecord
280
     1
102
MATERIAL
148
0.0
149
0.0
149
0.0
 93
        0
 94
      127
282
     0
 72
     0
 77
     0
171
     0
175
     0
179
     0
273
     0
  0
XRECORD
  5
20B
102
{ACAD_REACTORS
330
209
102
}
330
209
100
AcDbXrecord
280
     1
270
     1
271
     1
  0
XRECORD
  5
20A
102
{ACAD_REACTORS
330
209
102
}
330
209
100
AcDbXrecord
280
     1
270
     1
271
     1
  0
XRECORD
  5
20E
102
{ACAD_REACTORS
330
209
102
}
330
209
100
AcDbXrecord
280
     1
270
     1
271
     1
  0
XRECORD
  5
20D
102
{ACAD_REACTORS
330
209
102
}
330
209
100
AcDbXrecord
280
     1
270
     1
271
     1
  0
XRECORD
  5
20F
102
{ACAD_REACTORS
330
209
102
}
330
209
100
AcDbXrecord
280
     1
270
     1
271
     1
  0
XRECORD
  5
20C
102
{ACAD_REACTORS
330
209
102
}
330
209
100
AcDbXrecord
280
     1
270
     1
271
     1
  0
XRECORD
  5
2D9
102
{ACAD_REACTORS
330
219
102
}
330
219
100
AcDbXrecord
280
     1
102
MATERIAL
148
0.0
149
0.0
149
0.0
 93
        0
 94
      127
282
     0
 72
     0
 77
     0
171
     0
175
     0
179
     0
273
     0
  0
XRECORD
  5
21B
102
{ACAD_REACTORS
330
219
102
}
330
219
100
AcDbXrecord
280
     1
270
     1
271
     1
  0
XRECORD
  5
21A
102
{ACAD_REACTORS
330
219
102
}
330
219
100
AcDbXrecord
280
     1
270
     1
271
     1
  0
XRECORD
  5
21E
102
{ACAD_REACTORS
330
219
102
}
330
219
100
AcDbXrecord
280
     1
270
     1
271
     1
  0
XRECORD
  5
21D
102
{ACAD_REACTORS
330
219
102
}
330
219
100
AcDbXrecord
280
     1
270
     1
271
     1
  0
XRECORD
  5
21F
102
{ACAD_REACTORS
330
219
102
}
330
219
100
AcDbXrecord
280
     1
270
     1
271
     1
  0
XRECORD
  5
21C
102
{ACAD_REACTORS
330
219
102
}
330
219
100
AcDbXrecord
280
     1
270
     1
271
     1
  0
CELLSTYLEMAP
  5
2D5
102
{ACAD_REACTORS
330
2BB
102
}
330
2BB
100
AcDbCellStyleMap
 90
        3
300
CELLSTYLE
  1
TABLEFORMAT_BEGIN
 90
        5
170
     1
 91
        0
 92
    32768
 62
   257
 93
        1
300
CONTENTFORMAT
  1
CONTENTFORMAT_BEGIN
 90
        0
 91
        0
 92
      512
 93
        0
300

 40
0.0
140
1.0
 94
        5
 62
     0
340
F
144
0.25
309
CONTENTFORMAT_END
171
     0
 94
        0
309
TABLEFORMAT_END
  1
CELLSTYLE_BEGIN
 90
        1
 91
        1
300
_TITLE
309
CELLSTYLE_END
300
CELLSTYLE
  1
TABLEFORMAT_BEGIN
 90
        5
170
     1
 91
        0
 92
        0
 62
   257
 93
        1
300
CONTENTFORMAT
  1
CONTENTFORMAT_BEGIN
 90
        0
 91
        0
 92
      512
 93
        0
300

 40
0.0
140
1.0
 94
        5
 62
     0
340
F
144
0.18
309
CONTENTFORMAT_END
171
     0
 94
        0
309
TABLEFORMAT_END
  1
CELLSTYLE_BEGIN
 90
        2
 91
        1
300
_HEADER
309
CELLSTYLE_END
300
CELLSTYLE
  1
TABLEFORMAT_BEGIN
 90
        5
170
     1
 91
        0
 92
        0
 62
   257
 93
        1
300
CONTENTFORMAT
  1
CONTENTFORMAT_BEGIN
 90
        0
 91
        0
 92
      512
 93
        0
300

 40
0.0
140
1.0
 94
        2
 62
     0
340
F
144
0.18
309
CONTENTFORMAT_END
171
     0
 94
        0
309
TABLEFORMAT_END
  1
CELLSTYLE_BEGIN
 90
        3
 91
        2
300
_DATA
309
CELLSTYLE_END
  0
XRECORD
  5
2DA
102
{ACAD_REACTORS
330
2BB
102
}
330
2BB
100
AcDbXrecord
280
     1
102
ACAD_ROUNDTRIP_PRE2007_TABLESTYLE
 90
      512
 91
        0
  1

 92
      512
 93
        0
  2

 94
      512
 95
        0
  3

  0
ENDSEC
  0
EOF
