  0
SECTION
  2
HEADER
  9
$ACADVER
  1
AC1015
  9
$ACADMAINTVER
 70
    20
  9
$DWGCODEPAGE
  3
ANSI_1252
  9
$INSBASE
 10
0.6477183200261758
 20
-0.0253728645829251
 30
0.0
  9
$EXTMIN
 10
-24.984146
 20
-16.44909934887949
 30
0.0
  9
$EXTMAX
 10
28.02126836019123
 20
49.9159
 30
1.0
  9
$LIMMIN
 10
-165.80576
 20
-105.1
  9
$LIMMAX
 10
165.80576
 20
105.1
  9
$ORTHOMODE
 70
     0
  9
$REGENMODE
 70
     1
  9
$FILLMODE
 70
     1
  9
$QTEXTMODE
 70
     0
  9
$MIRRTEXT
 70
     1
  9
$LTSCALE
 40
1.0
  9
$ATTMODE
 70
     1
  9
$TEXTSIZE
 40
0.2
  9
$TRACEWID
 40
0.05
  9
$TEXTSTYLE
  7
STANDARD
  9
$CLAYER
  8
P-0000
  9
$CELTYPE
  6
CONTINUOUS
  9
$CECOLOR
 62
   256
  9
$CELTSCALE
 40
1.0
  9
$DISPSILH
 70
     0
  9
$DIMSCALE
 40
1.0
  9
$DIMASZ
 40
0.18
  9
$DIMEXO
 40
0.0625
  9
$DIMDLI
 40
0.38
  9
$DIMRND
 40
0.0
  9
$DIMDLE
 40
0.0
  9
$DIMEXE
 40
0.18
  9
$DIMTP
 40
0.0
  9
$DIMTM
 40
0.0
  9
$DIMTXT
 40
0.18
  9
$DIMCEN
 40
0.09
  9
$DIMTSZ
 40
0.0
  9
$DIMTOL
 70
     0
  9
$DIMLIM
 70
     0
  9
$DIMTIH
 70
     1
  9
$DIMTOH
 70
     1
  9
$DIMSE1
 70
     0
  9
$DIMSE2
 70
     0
  9
$DIMTAD
 70
     0
  9
$DIMZIN
 70
     0
  9
$DIMBLK
  1

  9
$DIMASO
 70
     1
  9
$DIMSHO
 70
     1
  9
$DIMPOST
  1

  9
$DIMAPOST
  1

  9
$DIMALT
 70
     0
  9
$DIMALTD
 70
     2
  9
$DIMALTF
 40
25.4
  9
$DIMLFAC
 40
1.0
  9
$DIMTOFL
 70
     0
  9
$DIMTVP
 40
0.0
  9
$DIMTIX
 70
     0
  9
$DIMSOXD
 70
     0
  9
$DIMSAH
 70
     0
  9
$DIMBLK1
  1

  9
$DIMBLK2
  1

  9
$DIMSTYLE
  2
STANDARD
  9
$DIMCLRD
 70
     0
  9
$DIMCLRE
 70
     0
  9
$DIMCLRT
 70
     0
  9
$DIMTFAC
 40
1.0
  9
$DIMGAP
 40
0.09
  9
$DIMJUST
 70
     0
  9
$DIMSD1
 70
     0
  9
$DIMSD2
 70
     0
  9
$DIMTOLJ
 70
     1
  9
$DIMTZIN
 70
     0
  9
$DIMALTZ
 70
     0
  9
$DIMALTTZ
 70
     0
  9
$DIMUPT
 70
     0
  9
$DIMDEC
 70
     4
  9
$DIMTDEC
 70
     4
  9
$DIMALTU
 70
     2
  9
$DIMALTTD
 70
     2
  9
$DIMTXSTY
  7
STANDARD
  9
$DIMAUNIT
 70
     0
  9
$DIMADEC
 70
     0
  9
$DIMALTRND
 40
0.0
  9
$DIMAZIN
 70
     0
  9
$DIMDSEP
 70
    46
  9
$DIMATFIT
 70
     3
  9
$DIMFRAC
 70
     0
  9
$DIMLDRBLK
  1

  9
$DIMLUNIT
 70
     2
  9
$DIMLWD
 70
    -2
  9
$DIMLWE
 70
    -2
  9
$DIMTMOVE
 70
     0
  9
$LUNITS
 70
     2
  9
$LUPREC
 70
     4
  9
$SKETCHINC
 40
0.1
  9
$FILLETRAD
 40
0.0
  9
$AUNITS
 70
     0
  9
$AUPREC
 70
     0
  9
$MENU
  1
.
  9
$ELEVATION
 40
0.0
  9
$PELEVATION
 40
0.0
  9
$THICKNESS
 40
0.0
  9
$LIMCHECK
 70
     0
  9
$CHAMFERA
 40
0.0
  9
$CHAMFERB
 40
0.0
  9
$CHAMFERC
 40
0.0
  9
$CHAMFERD
 40
0.0
  9
$SKPOLY
 70
     0
  9
$TDCREATE
 40
2451197.607007847
  9
$TDUCREATE
 40
2451197.565341181
  9
$TDUPDATE
 40
2455131.673457639
  9
$TDUUPDATE
 40
2455131.631790973
  9
$TDINDWG
 40
0.0022817245
  9
$TDUSRTIMER
 40
0.0022817245
  9
$USRTIMER
 70
     1
  9
$ANGBASE
 50
0.0
  9
$ANGDIR
 70
     0
  9
$PDMODE
 70
     0
  9
$PDSIZE
 40
0.0
  9
$PLINEWID
 40
0.0
  9
$SPLFRAME
 70
     0
  9
$SPLINETYPE
 70
     6
  9
$SPLINESEGS
 70
     8
  9
$HANDSEED
  5
184
  9
$SURFTAB1
 70
     6
  9
$SURFTAB2
 70
     6
  9
$SURFTYPE
 70
     6
  9
$SURFU
 70
     6
  9
$SURFV
 70
     6
  9
$UCSBASE
  2

  9
$UCSNAME
  2

  9
$UCSORG
 10
0.0
 20
0.0
 30
0.0
  9
$UCSXDIR
 10
1.0
 20
0.0
 30
0.0
  9
$UCSYDIR
 10
0.0
 20
1.0
 30
0.0
  9
$UCSORTHOREF
  2

  9
$UCSORTHOVIEW
 70
     0
  9
$UCSORGTOP
 10
0.0
 20
0.0
 30
0.0
  9
$UCSORGBOTTOM
 10
0.0
 20
0.0
 30
0.0
  9
$UCSORGLEFT
 10
0.0
 20
0.0
 30
0.0
  9
$UCSORGRIGHT
 10
0.0
 20
0.0
 30
0.0
  9
$UCSORGFRONT
 10
0.0
 20
0.0
 30
0.0
  9
$UCSORGBACK
 10
0.0
 20
0.0
 30
0.0
  9
$PUCSBASE
  2

  9
$PUCSNAME
  2

  9
$PUCSORG
 10
0.0
 20
0.0
 30
0.0
  9
$PUCSXDIR
 10
1.0
 20
0.0
 30
0.0
  9
$PUCSYDIR
 10
0.0
 20
1.0
 30
0.0
  9
$PUCSORTHOREF
  2

  9
$PUCSORTHOVIEW
 70
     0
  9
$PUCSORGTOP
 10
0.0
 20
0.0
 30
0.0
  9
$PUCSORGBOTTOM
 10
0.0
 20
0.0
 30
0.0
  9
$PUCSORGLEFT
 10
0.0
 20
0.0
 30
0.0
  9
$PUCSORGRIGHT
 10
0.0
 20
0.0
 30
0.0
  9
$PUCSORGFRONT
 10
0.0
 20
0.0
 30
0.0
  9
$PUCSORGBACK
 10
0.0
 20
0.0
 30
0.0
  9
$USERI1
 70
     0
  9
$USERI2
 70
     0
  9
$USERI3
 70
     0
  9
$USERI4
 70
     0
  9
$USERI5
 70
     0
  9
$USERR1
 40
0.0
  9
$USERR2
 40
0.0
  9
$USERR3
 40
0.0
  9
$USERR4
 40
0.0
  9
$USERR5
 40
0.0
  9
$WORLDVIEW
 70
     1
  9
$SHADEDGE
 70
     3
  9
$SHADEDIF
 70
    70
  9
$TILEMODE
 70
     1
  9
$MAXACTVP
 70
    48
  9
$PINSBASE
 10
0.0
 20
0.0
 30
0.0
  9
$PLIMCHECK
 70
     0
  9
$PEXTMIN
 10
1.000000000000000E+20
 20
1.000000000000000E+20
 30
1.000000000000000E+20
  9
$PEXTMAX
 10
-1.000000000000000E+20
 20
-1.000000000000000E+20
 30
-1.000000000000000E+20
  9
$PLIMMIN
 10
0.0
 20
0.0
  9
$PLIMMAX
 10
12.0
 20
9.0
  9
$UNITMODE
 70
     0
  9
$VISRETAIN
 70
     1
  9
$PLINEGEN
 70
     0
  9
$PSLTSCALE
 70
     1
  9
$TREEDEPTH
 70
  3020
  9
$CMLSTYLE
  2
STANDARD
  9
$CMLJUST
 70
     0
  9
$CMLSCALE
 40
1.0
  9
$PROXYGRAPHICS
 70
     1
  9
$MEASUREMENT
 70
     0
  9
$CELWEIGHT
370
    -1
  9
$ENDCAPS
280
     0
  9
$JOINSTYLE
280
     0
  9
$LWDISPLAY
290
     0
  9
$INSUNITS
 70
     0
  9
$HYPERLINKBASE
  1

  9
$STYLESHEET
  1

  9
$XEDIT
290
     1
  9
$CEPSNTYPE
380
     0
  9
$PSTYLEMODE
290
     1
  9
$FINGERPRINTGUID
  2
{3EEB6C33-92B3-4E5C-943E-616405F67EF9}
  9
$VERSIONGUID
  2
{F0911713-B51C-4E03-A7E0-8B746E4121CB}
  9
$EXTNAMES
290
     1
  9
$PSVPSCALE
 40
0.0
  9
$OLESTARTUP
290
     0
  0
ENDSEC
  0
SECTION
  2
CLASSES
  0
CLASS
  1
ACDBDICTIONARYWDFLT
  2
AcDbDictionaryWithDefault
  3
ObjectDBX Classes
 90
        0
280
     0
281
     0
  0
CLASS
  1
MATERIAL
  2
AcDbMaterial
  3
ObjectDBX Classes
 90
     1153
280
     0
281
     0
  0
CLASS
  1
VISUALSTYLE
  2
AcDbVisualStyle
  3
ObjectDBX Classes
 90
     4095
280
     0
281
     0
  0
CLASS
  1
TABLESTYLE
  2
AcDbTableStyle
  3
ObjectDBX Classes
 90
     4095
280
     0
281
     0
  0
CLASS
  1
SCALE
  2
AcDbScale
  3
ObjectDBX Classes
 90
     1153
280
     0
281
     0
  0
CLASS
  1
MLEADERSTYLE
  2
AcDbMLeaderStyle
  3
ACDB_MLEADERSTYLE_CLASS
 90
     4095
280
     0
281
     0
  0
CLASS
  1
ACDBQSCATEGORY
  2
AcQsCategory
  3
categories
 90
     1024
280
     0
281
     0
  0
CLASS
  1
SORTENTSTABLE
  2
AcDbSortentsTable
  3
ObjectDBX Classes
 90
        0
280
     0
281
     0
  0
CLASS
  1
DICTIONARYVAR
  2
AcDbDictionaryVar
  3
ObjectDBX Classes
 90
        0
280
     0
281
     0
  0
CLASS
  1
CELLSTYLEMAP
  2
AcDbCellStyleMap
  3
ObjectDBX Classes
 90
     1152
280
     0
281
     0
  0
CLASS
  1
ACDBPLACEHOLDER
  2
AcDbPlaceHolder
  3
ObjectDBX Classes
 90
        0
280
     0
281
     0
  0
CLASS
  1
LAYOUT
  2
AcDbLayout
  3
ObjectDBX Classes
 90
        0
280
     0
281
     0
  0
ENDSEC
  0
SECTION
  2
TABLES
  0
TABLE
  2
VPORT
  5
12
330
0
100
AcDbSymbolTable
 70
     1
  0
VPORT
  5
CA
330
12
100
AcDbSymbolTableRecord
100
AcDbViewportTableRecord
  2
*ACTIVE
 70
     0
 10
0.0
 20
0.0
 11
1.0
 21
1.0
 12
1.517997844172893
 22
18.52225737999628
 13
0.0
 23
0.0
 14
1.0
 24
1.0
 15
0.0
 25
0.0
 16
0.0
 26
0.0
 36
1.0
 17
0.0
 27
0.0
 37
0.0
 40
86.42451536566486
 41
1.698749999999999
 42
50.0
 43
0.0
 44
0.0
 50
0.0
 51
0.0
 71
     0
 72
   100
 73
     1
 74
     1
 75
     0
 76
     0
 77
     0
 78
     0
281
     0
 65
     1
110
0.0
120
0.0
130
0.0
111
1.0
121
0.0
131
0.0
112
0.0
122
1.0
132
0.0
 79
     0
146
0.0
  0
ENDTAB
  0
TABLE
  2
LTYPE
  5
D
330
0
100
AcDbSymbolTable
 70
    29
  0
LTYPE
  5
E
330
D
100
AcDbSymbolTableRecord
100
AcDbLinetypeTableRecord
  2
BYBLOCK
 70
     0
  3

 72
    65
 73
     0
 40
0.0
  0
LTYPE
  5
F
330
D
100
AcDbSymbolTableRecord
100
AcDbLinetypeTableRecord
  2
BYLAYER
 70
     0
  3

 72
    65
 73
     0
 40
0.0
  0
LTYPE
  5
5
330
D
100
AcDbSymbolTableRecord
100
AcDbLinetypeTableRecord
  2
CONTINUOUS
 70
     0
  3
Solid line
 72
    65
 73
     0
 40
0.0
  0
LTYPE
  5
133
330
D
100
AcDbSymbolTableRecord
100
AcDbLinetypeTableRecord
  2
BORDER
 70
     0
  3
Border __ __ . __ __ . __ __ . __ __ . __ __ .
 72
    65
 73
     6
 40
1.75
 49
0.5
 74
     0
 49
-0.25
 74
     0
 49
0.5
 74
     0
 49
-0.25
 74
     0
 49
0.0
 74
     0
 49
-0.25
 74
     0
  0
LTYPE
  5
134
330
D
100
AcDbSymbolTableRecord
100
AcDbLinetypeTableRecord
  2
BORDER2
 70
     0
  3
Border (.5x) __.__.__.__.__.__.__.__.__.__.__.
 72
    65
 73
     6
 40
0.875
 49
0.25
 74
     0
 49
-0.125
 74
     0
 49
0.25
 74
     0
 49
-0.125
 74
     0
 49
0.0
 74
     0
 49
-0.125
 74
     0
  0
LTYPE
  5
135
330
D
100
AcDbSymbolTableRecord
100
AcDbLinetypeTableRecord
  2
BORDERX2
 70
     0
  3
Border (2x) ____  ____  .  ____  ____  .  ___
 72
    65
 73
     6
 40
3.5
 49
1.0
 74
     0
 49
-0.5
 74
     0
 49
1.0
 74
     0
 49
-0.5
 74
     0
 49
0.0
 74
     0
 49
-0.5
 74
     0
  0
LTYPE
  5
136
330
D
100
AcDbSymbolTableRecord
100
AcDbLinetypeTableRecord
  2
CENTER
 70
     0
  3
Center ____ _ ____ _ ____ _ ____ _ ____ _ ____
 72
    65
 73
     4
 40
2.0
 49
1.25
 74
     0
 49
-0.25
 74
     0
 49
0.25
 74
     0
 49
-0.25
 74
     0
  0
LTYPE
  5
137
330
D
100
AcDbSymbolTableRecord
100
AcDbLinetypeTableRecord
  2
CENTER2
 70
     0
  3
Center (.5x) ___ _ ___ _ ___ _ ___ _ ___ _ ___
 72
    65
 73
     4
 40
1.125
 49
0.75
 74
     0
 49
-0.125
 74
     0
 49
0.125
 74
     0
 49
-0.125
 74
     0
  0
LTYPE
  5
138
330
D
100
AcDbSymbolTableRecord
100
AcDbLinetypeTableRecord
  2
CENTERX2
 70
     0
  3
Center (2x) ________  __  ________  __  _____
 72
    65
 73
     4
 40
4.0
 49
2.5
 74
     0
 49
-0.5
 74
     0
 49
0.5
 74
     0
 49
-0.5
 74
     0
  0
LTYPE
  5
139
330
D
100
AcDbSymbolTableRecord
100
AcDbLinetypeTableRecord
  2
DASHDOT
 70
     0
  3
Dash dot __ . __ . __ . __ . __ . __ . __ . __
 72
    65
 73
     4
 40
1.0
 49
0.5
 74
     0
 49
-0.25
 74
     0
 49
0.0
 74
     0
 49
-0.25
 74
     0
  0
LTYPE
  5
13A
330
D
100
AcDbSymbolTableRecord
100
AcDbLinetypeTableRecord
  2
DASHDOT2
 70
     0
  3
Dash dot (.5x) _._._._._._._._._._._._._._._.
 72
    65
 73
     4
 40
0.5
 49
0.25
 74
     0
 49
-0.125
 74
     0
 49
0.0
 74
     0
 49
-0.125
 74
     0
  0
LTYPE
  5
13B
330
D
100
AcDbSymbolTableRecord
100
AcDbLinetypeTableRecord
  2
DASHDOTX2
 70
     0
  3
Dash dot (2x) ____  .  ____  .  ____  .  ___
 72
    65
 73
     4
 40
2.0
 49
1.0
 74
     0
 49
-0.5
 74
     0
 49
0.0
 74
     0
 49
-0.5
 74
     0
  0
LTYPE
  5
13C
330
D
100
AcDbSymbolTableRecord
100
AcDbLinetypeTableRecord
  2
DASHED
 70
     0
  3
Dashed __ __ __ __ __ __ __ __ __ __ __ __ __ _
 72
    65
 73
     2
 40
0.75
 49
0.5
 74
     0
 49
-0.25
 74
     0
  0
LTYPE
  5
13D
330
D
100
AcDbSymbolTableRecord
100
AcDbLinetypeTableRecord
  2
DASHED2
 70
     0
  3
Dashed (.5x) _ _ _ _ _ _ _ _ _ _ _ _ _ _ _ _ _
 72
    65
 73
     2
 40
0.375
 49
0.25
 74
     0
 49
-0.125
 74
     0
  0
LTYPE
  5
13E
330
D
100
AcDbSymbolTableRecord
100
AcDbLinetypeTableRecord
  2
DASHEDX2
 70
     0
  3
Dashed (2x) ____  ____  ____  ____  ____  ___
 72
    65
 73
     2
 40
1.5
 49
1.0
 74
     0
 49
-0.5
 74
     0
  0
LTYPE
  5
13F
330
D
100
AcDbSymbolTableRecord
100
AcDbLinetypeTableRecord
  2
DIVIDE
 70
     0
  3
Divide ____ . . ____ . . ____ . . ____ . . ____
 72
    65
 73
     6
 40
1.25
 49
0.5
 74
     0
 49
-0.25
 74
     0
 49
0.0
 74
     0
 49
-0.25
 74
     0
 49
0.0
 74
     0
 49
-0.25
 74
     0
  0
LTYPE
  5
140
330
D
100
AcDbSymbolTableRecord
100
AcDbLinetypeTableRecord
  2
DIVIDE2
 70
     0
  3
Divide (.5x) __..__..__..__..__..__..__..__.._
 72
    65
 73
     6
 40
0.625
 49
0.25
 74
     0
 49
-0.125
 74
     0
 49
0.0
 74
     0
 49
-0.125
 74
     0
 49
0.0
 74
     0
 49
-0.125
 74
     0
  0
LTYPE
  5
141
330
D
100
AcDbSymbolTableRecord
100
AcDbLinetypeTableRecord
  2
DIVIDEX2
 70
     0
  3
Divide (2x) ________  .  .  ________  .  .  _
 72
    65
 73
     6
 40
2.5
 49
1.0
 74
     0
 49
-0.5
 74
     0
 49
0.0
 74
     0
 49
-0.5
 74
     0
 49
0.0
 74
     0
 49
-0.5
 74
     0
  0
LTYPE
  5
142
330
D
100
AcDbSymbolTableRecord
100
AcDbLinetypeTableRecord
  2
DOT
 70
     0
  3
Dot . . . . . . . . . . . . . . . . . . . . . .
 72
    65
 73
     2
 40
0.25
 49
0.0
 74
     0
 49
-0.25
 74
     0
  0
LTYPE
  5
143
330
D
100
AcDbSymbolTableRecord
100
AcDbLinetypeTableRecord
  2
DOT2
 70
     0
  3
Dot (.5x) .....................................
 72
    65
 73
     2
 40
0.125
 49
0.0
 74
     0
 49
-0.125
 74
     0
  0
LTYPE
  5
144
330
D
100
AcDbSymbolTableRecord
100
AcDbLinetypeTableRecord
  2
DOTX2
 70
     0
  3
Dot (2x) .  .  .  .  .  .  .  .  .  .  .  .  . 
 72
    65
 73
     2
 40
0.5
 49
0.0
 74
     0
 49
-0.5
 74
     0
  0
LTYPE
  5
145
330
D
100
AcDbSymbolTableRecord
100
AcDbLinetypeTableRecord
  2
HIDDEN
 70
     0
  3
Hidden __ __ __ __ __ __ __ __ __ __ __ __ __ _
 72
    65
 73
     2
 40
0.375
 49
0.25
 74
     0
 49
-0.125
 74
     0
  0
LTYPE
  5
146
330
D
100
AcDbSymbolTableRecord
100
AcDbLinetypeTableRecord
  2
HIDDEN2
 70
     0
  3
Hidden (.5x) _ _ _ _ _ _ _ _ _ _ _ _ _ _ _ _ _
 72
    65
 73
     2
 40
0.1875
 49
0.125
 74
     0
 49
-0.0625
 74
     0
  0
LTYPE
  5
147
330
D
100
AcDbSymbolTableRecord
100
AcDbLinetypeTableRecord
  2
HIDDENX2
 70
     0
  3
Hidden (2x) ____ ____ ____ ____ ____ ____ ____
 72
    65
 73
     2
 40
0.75
 49
0.5
 74
     0
 49
-0.25
 74
     0
  0
LTYPE
  5
148
330
D
100
AcDbSymbolTableRecord
100
AcDbLinetypeTableRecord
  2
PHANTOM
 70
     0
  3
Phantom ______  __  __  ______  __  __  ______
 72
    65
 73
     6
 40
2.5
 49
1.25
 74
     0
 49
-0.25
 74
     0
 49
0.25
 74
     0
 49
-0.25
 74
     0
 49
0.25
 74
     0
 49
-0.25
 74
     0
  0
LTYPE
  5
149
330
D
100
AcDbSymbolTableRecord
100
AcDbLinetypeTableRecord
  2
PHANTOM2
 70
     0
  3
Phantom (.5x) ___ _ _ ___ _ _ ___ _ _ ___ _ _
 72
    65
 73
     6
 40
1.25
 49
0.625
 74
     0
 49
-0.125
 74
     0
 49
0.125
 74
     0
 49
-0.125
 74
     0
 49
0.125
 74
     0
 49
-0.125
 74
     0
  0
LTYPE
  5
14A
330
D
100
AcDbSymbolTableRecord
100
AcDbLinetypeTableRecord
  2
PHANTOMX2
 70
     0
  3
Phantom (2x) ____________    ____    ____   _
 72
    65
 73
     6
 40
5.0
 49
2.5
 74
     0
 49
-0.5
 74
     0
 49
0.5
 74
     0
 49
-0.5
 74
     0
 49
0.5
 74
     0
 49
-0.5
 74
     0
  0
LTYPE
  5
14B
330
D
100
AcDbSymbolTableRecord
100
AcDbLinetypeTableRecord
  2
ASSI
 70
     0
  3
-.-.-.-.-.-.-.-.-.-.-.-.-.-.-.-.-.-.-.-.-.-.-.-
 72
    65
 73
     4
 40
16.0
 49
10.0
 74
     0
 49
-2.0
 74
     0
 49
2.0
 74
     0
 49
-2.0
 74
     0
  0
LTYPE
  5
14C
330
D
100
AcDbSymbolTableRecord
100
AcDbLinetypeTableRecord
  2
INGOMBRI
 70
     0
  3
--..--..--..--..--..--..--..--..--..--..--..--
 72
    65
 73
     6
 40
20.0
 49
10.0
 74
     0
 49
-2.0
 74
     0
 49
2.0
 74
     0
 49
-2.0
 74
     0
 49
2.0
 74
     0
 49
-2.0
 74
     0
  0
LTYPE
  5
14D
330
D
100
AcDbSymbolTableRecord
100
AcDbLinetypeTableRecord
  2
TRATTEGGIO
 70
     0
  3
- - - - - - - - - - - - - - - - - - - - - -
 72
    65
 73
     2
 40
5.5
 49
4.0
 74
     0
 49
-1.5
 74
     0
  0
LTYPE
  5
14E
330
D
100
AcDbSymbolTableRecord
100
AcDbLinetypeTableRecord
  2
PUNTO
 70
     0
  3
Punto . . . . . . . . . . . . . . . . . . . . .
 72
    65
 73
     2
 40
6.349999999999999
 49
0.0
 74
     0
 49
-6.349999999999999
 74
     0
  0
ENDTAB
  0
TABLE
  2
LAYER
  5
A
330
0
100
AcDbSymbolTable
 70
     6
  0
LAYER
  5
4
102
{ACAD_XDICTIONARY
360
166
102
}
330
A
100
AcDbSymbolTableRecord
100
AcDbLayerTableRecord
  2
0
 70
     0
 62
     7
  6
CONTINUOUS
370
    -3
390
CD
  0
LAYER
  5
12B
102
{ACAD_XDICTIONARY
360
168
102
}
330
A
100
AcDbSymbolTableRecord
100
AcDbLayerTableRecord
  2
P-0000
 70
     0
 62
     7
  6
CONTINUOUS
370
    -3
390
CD
1001
AcAecLayerStandard
1000

1000
TOP
  0
LAYER
  5
14F
330
A
100
AcDbSymbolTableRecord
100
AcDbLayerTableRecord
  2
Defpoints
 70
     0
 62
     7
  6
CONTINUOUS
290
     0
370
    -3
390
CD
  0
LAYER
  5
150
102
{ACAD_XDICTIONARY
360
16A
102
}
330
A
100
AcDbSymbolTableRecord
100
AcDbLayerTableRecord
  2
MS_AXES
 70
     0
 62
     1
  6
CONTINUOUS
370
    -3
390
CD
  0
LAYER
  5
151
102
{ACAD_XDICTIONARY
360
16C
102
}
330
A
100
AcDbSymbolTableRecord
100
AcDbLayerTableRecord
  2
P-6853
 70
     0
 62
     7
  6
CONTINUOUS
370
    -3
390
CD
  0
LAYER
  5
152
102
{ACAD_XDICTIONARY
360
16E
102
}
330
A
100
AcDbSymbolTableRecord
100
AcDbLayerTableRecord
  2
COSTRUZIONE
 70
     0
 62
     7
  6
CONTINUOUS
370
    -3
390
CD
  0
ENDTAB
  0
TABLE
  2
STYLE
  5
B
330
0
100
AcDbSymbolTable
 70
     4
  0
STYLE
  5
C
330
B
100
AcDbSymbolTableRecord
100
AcDbTextStyleTableRecord
  2
STANDARD
 70
     0
 40
0.0
 41
1.0
 50
0.0
 71
     0
 42
0.2
  3
txt
  4

  0
STYLE
  5
153
330
B
100
AcDbSymbolTableRecord
100
AcDbTextStyleTableRecord
  2
ROMANS
 70
     0
 40
0.0
 41
1.0
 50
15.0
 71
     0
 42
3.0
  3
ROMANS.shx
  4

  0
STYLE
  5
154
330
B
100
AcDbSymbolTableRecord
100
AcDbTextStyleTableRecord
  2

 70
     1
 40
0.0
 41
1.0
 50
0.0
 71
     0
 42
0.2
  3
ltypeshp.shx
  4

  0
STYLE
  5
155
330
B
100
AcDbSymbolTableRecord
100
AcDbTextStyleTableRecord
  2
Annotative
 70
     0
 40
0.0
 41
1.0
 50
0.0
 71
     0
 42
0.2
  3
txt
  4

1001
AcadAnnotative
1000
AnnotativeData
1002
{
1070
     1
1070
     1
1002
}
  0
ENDTAB
  0
TABLE
  2
VIEW
  5
10
330
0
100
AcDbSymbolTable
 70
     0
  0
ENDTAB
  0
TABLE
  2
UCS
  5
11
330
0
100
AcDbSymbolTable
 70
     0
  0
ENDTAB
  0
TABLE
  2
APPID
  5
14
330
0
100
AcDbSymbolTable
 70
    13
  0
APPID
  5
15
330
14
100
AcDbSymbolTableRecord
100
AcDbRegAppTableRecord
  2
ACAD
 70
     0
  0
APPID
  5
11F
330
14
100
AcDbSymbolTableRecord
100
AcDbRegAppTableRecord
  2
ACAD_MLEADERVER
 70
     0
  0
APPID
  5
12C
330
14
100
AcDbSymbolTableRecord
100
AcDbRegAppTableRecord
  2
AcAecLayerStandard
 70
     0
  0
APPID
  5
132
330
14
100
AcDbSymbolTableRecord
100
AcDbRegAppTableRecord
  2
TOP
 70
     0
  0
APPID
  5
157
330
14
100
AcDbSymbolTableRecord
100
AcDbRegAppTableRecord
  2
ACAD_DSTYLE_DIMTEXT_FILL
 70
     0
  0
APPID
  5
158
330
14
100
AcDbSymbolTableRecord
100
AcDbRegAppTableRecord
  2
MS_EXP_99
 70
     0
  0
APPID
  5
159
330
14
100
AcDbSymbolTableRecord
100
AcDbRegAppTableRecord
  2
MS_EXP_PRO
 70
     0
  0
APPID
  5
15A
330
14
100
AcDbSymbolTableRecord
100
AcDbRegAppTableRecord
  2
MS_EXP_PROJECT_BASE
 70
     0
  0
APPID
  5
15B
330
14
100
AcDbSymbolTableRecord
100
AcDbRegAppTableRecord
  2
MS_EXPLO_FILLET
 70
     0
  0
APPID
  5
15C
330
14
100
AcDbSymbolTableRecord
100
AcDbRegAppTableRecord
  2
MS_EXPLO_FOR_FILLET
 70
     0
  0
APPID
  5
15D
330
14
100
AcDbSymbolTableRecord
100
AcDbRegAppTableRecord
  2
MS
 70
     0
  0
APPID
  5
15E
330
14
100
AcDbSymbolTableRecord
100
AcDbRegAppTableRecord
  2
MS_BASE
 70
     0
  0
APPID
  5
15F
330
14
100
AcDbSymbolTableRecord
100
AcDbRegAppTableRecord
  2
AcadAnnotative
 70
     0
  0
ENDTAB
  0
TABLE
  2
DIMSTYLE
  5
16
330
0
100
AcDbSymbolTable
 70
     2
100
AcDbDimStyleTable
 71
     0
  0
DIMSTYLE
105
1C
330
16
100
AcDbSymbolTableRecord
100
AcDbDimStyleTableRecord
  2
STANDARD
 70
     0
340
C
  0
DIMSTYLE
105
156
330
16
100
AcDbSymbolTableRecord
100
AcDbDimStyleTableRecord
  2
ACADTOP
 70
     0
 41
3.0
 42
1.0
 43
10.0
 44
0.5
 73
     0
 74
     0
 77
     1
 78
     8
 79
     2
140
3.0
141
0.0
146
0.7
147
1.5
172
     1
174
     1
176
     3
177
     3
178
     6
179
     2
271
     2
272
     2
284
     8
289
     0
340
153
  0
ENDTAB
  0
TABLE
  2
BLOCK_RECORD
  5
1
330
0
100
AcDbSymbolTable
 70
     1
  0
BLOCK_RECORD
  5
2
330
1
100
AcDbSymbolTableRecord
100
AcDbBlockTableRecord
  2
*MODEL_SPACE
340
122
  0
BLOCK_RECORD
  5
7
330
1
100
AcDbSymbolTableRecord
100
AcDbBlockTableRecord
  2
*PAPER_SPACE
340
123
  0
ENDTAB
  0
ENDSEC
  0
SECTION
  2
BLOCKS
  0
BLOCK
  5
3
330
2
100
AcDbEntity
  8
0
100
AcDbBlockBegin
  2
*MODEL_SPACE
 70
     0
 10
0.0
 20
0.0
 30
0.0
  3
*MODEL_SPACE
  1

  0
ENDBLK
  5
6
330
2
100
AcDbEntity
  8
0
100
AcDbBlockEnd
  0
BLOCK
  5
8
330
7
100
AcDbEntity
 67
     1
  8
0
100
AcDbBlockBegin
  2
*PAPER_SPACE
 70
     0
 10
0.0
 20
0.0
 30
0.0
  3
*PAPER_SPACE
  1

  0
ENDBLK
  5
9
330
7
100
AcDbEntity
 67
     1
  8
0
100
AcDbBlockEnd
  0
ENDSEC
  0
SECTION
  2
ENTITIES
  0
LINE
  5
1D
330
2
100
AcDbEntity
  8
0
 62
     7
100
AcDbLine
 10
16.666293
 20
43.433453
 30
1.0
 11
17.761772
 21
42.458188
 31
1.0
  0
LINE
  5
1E
330
2
100
AcDbEntity
  8
0
 62
     7
100
AcDbLine
 10
17.761772
 20
42.458188
 30
1.0
 11
18.828586
 21
41.374637
 31
1.0
  0
LINE
  5
1F
330
2
100
AcDbEntity
  8
0
 62
     7
100
AcDbLine
 10
15.489235
 20
44.35215499999999
 30
1.0
 11
16.666293
 21
43.433453
 31
1.0
  0
LINE
  5
20
330
2
100
AcDbEntity
  8
0
 62
     7
100
AcDbLine
 10
14.188731
 20
45.255371
 30
1.0
 11
15.489235
 21
44.35215499999999
 31
1.0
  0
LINE
  5
21
330
2
100
AcDbEntity
  8
0
 62
     7
100
AcDbLine
 10
19.86692
 20
40.18259899999999
 30
1.0
 11
20.837555
 21
38.902924
 31
1.0
  0
LINE
  5
22
330
2
100
AcDbEntity
  8
0
 62
     7
100
AcDbLine
 10
20.837555
 20
38.902924
 30
1.0
 11
21.685127
 21
37.564911
 31
1.0
  0
LINE
  5
23
330
2
100
AcDbEntity
  8
0
 62
     7
100
AcDbLine
 10
23.028278
 20
34.731003
 30
1.0
 11
23.57093
 21
33.277429
 31
1.0
  0
LINE
  5
24
330
2
100
AcDbEntity
  8
0
 62
     7
100
AcDbLine
 10
22.409232
 20
36.168787
 30
1.0
 11
23.028278
 21
34.731003
 31
1.0
  0
LINE
  5
25
330
2
100
AcDbEntity
  8
0
 62
     7
100
AcDbLine
 10
21.685127
 20
37.564911
 30
1.0
 11
22.409232
 21
36.168787
 31
1.0
  0
LINE
  5
26
330
2
100
AcDbEntity
  8
0
 62
     7
100
AcDbLine
 10
18.405386
 20
35.417953
 30
1.0
 11
19.689995
 21
33.482837
 31
1.0
  0
LINE
  5
27
330
2
100
AcDbEntity
  8
0
 62
     7
100
AcDbLine
 10
20.974577
 20
34.450421
 30
1.0
 11
18.553625
 21
39.046231
 31
1.0
  0
LINE
  5
28
330
2
100
AcDbEntity
  8
0
 62
     7
100
AcDbLine
 10
13.810492
 20
41.787616
 30
1.0
 11
16.676111
 21
38.60275900000001
 31
1.0
  0
LINE
  5
29
330
2
100
AcDbEntity
  8
0
 62
     7
100
AcDbLine
 10
16.972589
 20
40.981293
 30
1.0
 11
15.243289
 21
42.714841
 31
1.0
  0
LINE
  5
2A
330
2
100
AcDbEntity
  8
0
 62
     7
100
AcDbLine
 10
18.828586
 20
41.374637
 30
1.0
 11
19.86692
 21
40.18259899999999
 31
1.0
  0
LINE
  5
2B
330
2
100
AcDbEntity
  8
0
 62
     7
100
AcDbLine
 10
10.973
 20
47.07909899999999
 30
1.0
 11
12.764632
 21
46.14320099999999
 31
1.0
  0
LINE
  5
2C
330
2
100
AcDbEntity
  8
0
 62
     7
100
AcDbLine
 10
8.597416
 20
48.11964099999999
 30
1.0
 11
10.973
 21
47.07909899999999
 31
1.0
  0
LINE
  5
2D
330
2
100
AcDbEntity
  8
0
 62
     7
100
AcDbLine
 10
10.450745
 20
42.23106099999999
 30
1.0
 11
9.808453
 21
42.714841
 31
1.0
  0
LINE
  5
2E
330
2
100
AcDbEntity
  8
0
 62
     7
100
AcDbLine
 10
8.375630000000001
 20
44.327411
 30
1.0
 11
7.585125999999999
 21
45.093372
 31
1.0
  0
LINE
  5
2F
330
2
100
AcDbEntity
  8
0
 62
     7
100
AcDbLine
 10
12.871748
 20
44.48867199999999
 30
1.0
 11
10.006079
 21
47.028439
 31
1.0
  0
LINE
  5
30
330
2
100
AcDbEntity
  8
0
 62
     7
100
AcDbLine
 10
5.855825
 20
46.70594499999999
 30
1.0
 11
0.27275
 21
49.24574
 31
1.0
  0
LINE
  5
31
330
2
100
AcDbEntity
  8
0
 62
     7
100
AcDbLine
 10
5.637828999999999
 20
49.264758
 30
1.0
 11
8.597416
 21
48.11964099999999
 31
1.0
  0
LINE
  5
32
330
2
100
AcDbEntity
  8
0
 62
     7
100
AcDbLine
 10
12.674122
 20
38.764044
 30
1.0
 11
12.031805
 21
40.658798
 31
1.0
  0
LINE
  5
33
330
2
100
AcDbEntity
  8
0
 62
     7
100
AcDbLine
 10
9.363785999999999
 20
36.828952
 30
1.0
 11
10.006079
 21
35.095432
 31
1.0
  0
LINE
  5
34
330
2
100
AcDbEntity
  8
0
 62
     7
100
AcDbLine
 10
0.4210140000000001
 20
37.957721
 30
1.0
 11
0.766829
 21
34.28916
 31
1.0
  0
LINE
  5
35
330
2
100
AcDbEntity
  8
0
 62
     7
100
AcDbLine
 10
5.213533999999999
 20
42.392322
 30
1.0
 11
8.573282
 21
39.046231
 31
1.0
  0
LINE
  5
36
330
2
100
AcDbEntity
  8
0
 62
     7
100
AcDbLine
 10
12.764632
 20
46.14320099999999
 30
1.0
 11
14.188731
 21
45.255371
 31
1.0
  0
LINE
  5
37
330
2
100
AcDbEntity
  8
0
 62
     7
100
AcDbLine
 10
24.03769500000001
 20
31.808344
 30
1.0
 11
24.411359
 21
30.327939
 31
1.0
  0
LINE
  5
38
330
2
100
AcDbEntity
  8
0
 62
     7
100
AcDbLine
 10
24.411359
 20
30.327939
 30
1.0
 11
24.662109
 21
28.843567
 31
1.0
  0
LINE
  5
39
330
2
100
AcDbEntity
  8
0
 62
     7
100
AcDbLine
 10
24.789468
 20
27.355304
 30
1.0
 11
24.815613
 21
25.820377
 31
1.0
  0
LINE
  5
3A
330
2
100
AcDbEntity
  8
0
 62
     7
100
AcDbLine
 10
20.826364
 20
30.298032
 30
1.0
 11
21.616869
 21
27.758264
 31
1.0
  0
LINE
  5
3B
330
2
100
AcDbEntity
  8
0
 62
     7
100
AcDbLine
 10
22.555664
 20
28.725769
 30
1.0
 11
21.27103
 21
32.394379
 31
1.0
  0
LINE
  5
3C
330
2
100
AcDbEntity
  8
0
 62
     7
100
AcDbLine
 10
24.662109
 20
28.843567
 30
1.0
 11
24.789468
 21
27.355304
 31
1.0
  0
LINE
  5
3D
330
2
100
AcDbEntity
  8
0
 62
     7
100
AcDbLine
 10
24.78367
 20
24.155824
 30
1.0
 11
24.694763
 21
22.359564
 31
1.0
  0
LINE
  5
3E
330
2
100
AcDbEntity
  8
0
 62
     7
100
AcDbLine
 10
24.52674
 20
20.513358
 30
1.0
 11
24.232144
 21
18.792932
 31
1.0
  0
LINE
  5
3F
330
2
100
AcDbEntity
  8
0
 62
     7
100
AcDbLine
 10
24.232144
 20
18.792932
 30
1.0
 11
23.809373
 21
17.204242
 31
1.0
  0
LINE
  5
40
330
2
100
AcDbEntity
  8
0
 62
     7
100
AcDbLine
 10
22.555664
 20
19.493819
 30
1.0
 11
22.85209
 21
21.711119
 31
1.0
  0
LINE
  5
41
330
2
100
AcDbEntity
  8
0
 62
     7
100
AcDbLine
 10
24.694763
 20
22.359564
 30
1.0
 11
24.52674
 21
20.513358
 31
1.0
  0
LINE
  5
42
330
2
100
AcDbEntity
  8
0
 62
     7
100
AcDbLine
 10
16.527872
 20
19.493819
 30
1.0
 11
16.527872
 21
29.370807
 31
1.0
  0
LINE
  5
43
330
2
100
AcDbEntity
  8
0
 62
     7
100
AcDbLine
 10
21.765083
 20
26.024744
 30
1.0
 11
21.765083
 21
22.517389
 31
1.0
  0
LINE
  5
44
330
2
100
AcDbEntity
  8
0
 62
     7
100
AcDbLine
 10
23.049742
 20
24.089651
 30
1.0
 11
23.049742
 21
26.024744
 31
1.0
  0
LINE
  5
45
330
2
100
AcDbEntity
  8
0
 62
     7
100
AcDbLine
 10
16.527872
 20
19.493819
 30
1.0
 11
16.527872
 21
29.370807
 31
1.0
  0
LINE
  5
46
330
2
100
AcDbEntity
  8
0
 62
     7
100
AcDbLine
 10
24.815613
 20
25.820377
 30
1.0
 11
24.78367
 21
24.155824
 31
1.0
  0
LINE
  5
47
330
2
100
AcDbEntity
  8
0
 62
     7
100
AcDbLine
 10
11.093036
 20
32.071863
 30
1.0
 11
11.735378
 21
30.459317
 31
1.0
  0
LINE
  5
48
330
2
100
AcDbEntity
  8
0
 62
     7
100
AcDbLine
 10
1.063305999999999
 20
32.394379
 30
1.0
 11
0.915093
 21
31.588107
 31
1.0
  0
LINE
  5
49
330
2
100
AcDbEntity
  8
0
 62
     7
100
AcDbLine
 10
0.915093
 20
30.298032
 30
1.0
 11
1.211519
 21
29.209573
 31
1.0
  0
LINE
  5
4A
330
2
100
AcDbEntity
  8
0
 62
     7
100
AcDbLine
 10
1.211519
 20
27.758264
 30
1.0
 11
1.557384
 21
25.863483
 31
1.0
  0
LINE
  5
4B
330
2
100
AcDbEntity
  8
0
 62
     7
100
AcDbLine
 10
1.557384
 20
23.807466
 30
1.0
 11
1.705597999999999
 21
21.06608
 31
1.0
  0
LINE
  5
4C
330
2
100
AcDbEntity
  8
0
 62
     7
100
AcDbLine
 10
1.853836
 20
18.203741
 30
1.0
 11
1.705597999999999
 21
17.115283
 31
1.0
  0
LINE
  5
4D
330
2
100
AcDbEntity
  8
0
 62
     7
100
AcDbLine
 10
11.587114
 20
26.508521
 30
1.0
 11
11.587114
 21
23.162428
 31
1.0
  0
LINE
  5
4E
330
2
100
AcDbEntity
  8
0
 62
     7
100
AcDbLine
 10
23.278853
 20
15.737215
 30
1.0
 11
22.689255
 21
14.368098
 31
1.0
  0
LINE
  5
4F
330
2
100
AcDbEntity
  8
0
 62
     7
100
AcDbLine
 10
22.689255
 20
14.368098
 30
1.0
 11
22.042691
 21
13.095824
 31
1.0
  0
LINE
  5
50
330
2
100
AcDbEntity
  8
0
 62
     7
100
AcDbLine
 10
21.309024
 20
11.865128
 30
1.0
 11
20.408658
 21
10.52981
 31
1.0
  0
LINE
  5
51
330
2
100
AcDbEntity
  8
0
 62
     7
100
AcDbLine
 10
20.184073
 20
11.551917
 30
1.0
 11
21.765083
 21
15.18022
 31
1.0
  0
LINE
  5
52
330
2
100
AcDbEntity
  8
0
 62
     7
100
AcDbLine
 10
22.042691
 20
13.095824
 30
1.0
 11
21.309024
 21
11.865128
 31
1.0
  0
LINE
  5
53
330
2
100
AcDbEntity
  8
0
 62
     7
100
AcDbLine
 10
20.408658
 20
10.52981
 30
1.0
 11
19.33734
 21
9.082160999999999
 31
1.0
  0
LINE
  5
54
330
2
100
AcDbEntity
  8
0
 62
     7
100
AcDbLine
 10
18.126279
 20
7.595552000000001
 30
1.0
 11
16.866541
 21
6.284901000000001
 31
1.0
  0
LINE
  5
55
330
2
100
AcDbEntity
  8
0
 62
     7
100
AcDbLine
 10
15.56413
 20
5.164069999999998
 30
1.0
 11
14.22108
 21
4.209837999999997
 31
1.0
  0
LINE
  5
56
330
2
100
AcDbEntity
  8
0
 62
     7
100
AcDbLine
 10
16.866541
 20
6.284901000000001
 30
1.0
 11
15.56413
 21
5.164069999999998
 31
1.0
  0
LINE
  5
57
330
2
100
AcDbEntity
  8
0
 62
     7
100
AcDbLine
 10
18.10896
 20
9.455593999999999
 30
1.0
 11
16.824374
 21
7.722073000000001
 31
1.0
  0
LINE
  5
58
330
2
100
AcDbEntity
  8
0
 62
     7
100
AcDbLine
 10
19.33734
 20
9.082160999999999
 30
1.0
 11
18.126279
 21
7.595552000000001
 31
1.0
  0
LINE
  5
59
330
2
100
AcDbEntity
  8
0
 62
     7
100
AcDbLine
 10
1.211519
 20
13.769217
 30
1.0
 11
0.915093
 21
11.834129
 31
1.0
  0
LINE
  5
5A
330
2
100
AcDbEntity
  8
0
 62
     7
100
AcDbLine
 10
12.844283
 20
3.346599999999998
 30
1.0
 11
11.434221
 21
2.568657999999999
 31
1.0
  0
LINE
  5
5B
330
2
100
AcDbEntity
  8
0
 62
     7
100
AcDbLine
 10
11.434221
 20
2.568657999999999
 30
1.0
 11
9.988074000000001
 21
1.878250999999998
 31
1.0
  0
LINE
  5
5C
330
2
100
AcDbEntity
  8
0
 62
     7
100
AcDbLine
 10
8.495361
 20
1.283922
 30
1.0
 11
6.955167999999999
 21
0.7864870000000011
 31
1.0
  0
LINE
  5
5D
330
2
100
AcDbEntity
  8
0
 62
     7
100
AcDbLine
 10
9.988074000000001
 20
1.878250999999998
 30
1.0
 11
8.495361
 21
1.283922
 31
1.0
  0
LINE
  5
5E
330
2
100
AcDbEntity
  8
0
 62
     7
100
AcDbLine
 10
12.871748
 20
4.698499999999999
 30
1.0
 11
7.585125999999999
 21
1.836186999999998
 31
1.0
  0
LINE
  5
5F
330
2
100
AcDbEntity
  8
0
 62
     7
100
AcDbLine
 10
0.915093
 20
5.504798
 30
1.0
 11
0.618615
 21
4.537241000000001
 31
1.0
  0
LINE
  5
60
330
2
100
AcDbEntity
  8
0
 62
     7
100
AcDbLine
 10
5.393435
 20
0.3913870000000017
 30
1.0
 11
3.914175
 21
0.1210529999999998
 31
1.0
  0
LINE
  5
61
330
2
100
AcDbEntity
  8
0
 62
     7
100
AcDbLine
 10
0.618615
 20
2.924644999999998
 30
1.0
 11
0.4210140000000001
 21
1.513667999999999
 31
1.0
  0
LINE
  5
62
330
2
100
AcDbEntity
  8
0
 62
     7
100
AcDbLine
 10
5.855825
 20
4.375955999999998
 30
1.0
 11
3.780712
 21
1.674928000000001
 31
1.0
  0
LINE
  5
63
330
2
100
AcDbEntity
  8
0
 62
     7
100
AcDbLine
 10
4.867669
 20
1.513667999999999
 30
1.0
 11
10.796584
 21
4.859760000000001
 31
1.0
  0
LINE
  5
64
330
2
100
AcDbEntity
  8
0
 62
     7
100
AcDbLine
 10
6.955167999999999
 20
0.7864870000000011
 30
1.0
 11
5.393435
 21
0.3913870000000017
 31
1.0
  0
LINE
  5
65
330
2
100
AcDbEntity
  8
0
 62
     7
100
AcDbLine
 10
0.766829
 20
9.778062
 30
1.0
 11
0.766829
 21
7.077035000000002
 31
1.0
  0
LINE
  5
66
330
2
100
AcDbEntity
  8
0
 62
     7
100
AcDbLine
 10
10.302531
 20
13.446672
 30
1.0
 11
6.794594999999999
 21
6.754539999999998
 31
1.0
  0
LINE
  5
67
330
2
100
AcDbEntity
  8
0
 62
     7
100
AcDbLine
 10
12.031805
 20
6.754539999999998
 30
1.0
 11
14.452785
 21
10.261867
 31
1.0
  0
LINE
  5
68
330
2
100
AcDbEntity
  8
0
 62
     7
100
AcDbLine
 10
14.22108
 20
4.209837999999997
 30
1.0
 11
12.844283
 21
3.346599999999998
 31
1.0
  0
LINE
  5
69
330
2
100
AcDbEntity
  8
0
 62
     7
100
AcDbLine
 10
11.438901
 20
19.171324
 30
1.0
 11
10.796584
 21
16.309012
 31
1.0
  0
LINE
  5
6A
330
2
100
AcDbEntity
  8
0
 62
     7
100
AcDbLine
 10
15.243289
 20
12.801634
 30
1.0
 11
16.330298
 21
16.954024
 31
1.0
  0
LINE
  5
6B
330
2
100
AcDbEntity
  8
0
 62
     7
100
AcDbLine
 10
20.826364
 20
19.332584
 30
1.0
 11
19.393542
 21
13.769217
 31
1.0
  0
LINE
  5
6C
330
2
100
AcDbEntity
  8
0
 62
     7
100
AcDbLine
 10
23.809373
 20
17.204242
 30
1.0
 11
23.278853
 21
15.737215
 31
1.0
  0
LINE
  5
6D
330
2
100
AcDbEntity
  8
0
 62
     7
100
AcDbLine
 10
15.88558
 20
32.071863
 30
1.0
 11
14.74921
 21
34.450421
 31
1.0
  0
LINE
  5
6E
330
2
100
AcDbEntity
  8
0
 62
     7
100
AcDbLine
 10
23.57093
 20
33.277429
 30
1.0
 11
24.03769500000001
 21
31.808344
 31
1.0
  0
LINE
  5
6F
330
2
100
AcDbEntity
  8
0
 62
     7
100
AcDbLine
 10
2.528399999999999
 20
-0.022278
 30
1.0
 11
1.188045999999999
 21
-0.0465389999999992
 31
1.0
  0
LINE
  5
70
330
2
100
AcDbEntity
  8
0
 62
     7
100
AcDbLine
 10
3.914175
 20
0.1210529999999998
 30
1.0
 11
2.528399999999999
 21
-0.022278
 31
1.0
  0
LINE
  5
71
330
2
100
AcDbEntity
  8
0
 62
     7
100
AcDbLine
 10
-2.991732999999999
 20
49.688446
 30
1.0
 11
-1.534750999999999
 21
49.831976
 31
1.0
  0
LINE
  5
72
330
2
100
AcDbEntity
  8
0
 62
     7
100
AcDbLine
 10
-1.534750999999999
 20
49.831976
 30
1.0
 11
0.0
 21
49.9159
 31
1.0
  0
LINE
  5
73
330
2
100
AcDbEntity
  8
0
 62
     7
100
AcDbLine
 10
-4.371021999999999
 20
49.485303
 30
1.0
 11
-2.991732999999999
 21
49.688446
 31
1.0
  0
LINE
  5
74
330
2
100
AcDbEntity
  8
0
 62
     7
100
AcDbLine
 10
-1.65415
 20
49.08447899999999
 30
1.0
 11
-1.011832999999999
 21
46.70594499999999
 31
1.0
  0
LINE
  5
75
330
2
100
AcDbEntity
  8
0
 62
     7
100
AcDbLine
 10
-6.10083
 20
46.060907
 30
1.0
 11
-2.889295
 21
49.08447899999999
 31
1.0
  0
LINE
  5
76
330
2
100
AcDbEntity
  8
0
 62
     7
100
AcDbLine
 10
-9.390667999999999
 20
48.086581
 30
1.0
 11
-8.196721
 21
48.524713
 31
1.0
  0
LINE
  5
77
330
2
100
AcDbEntity
  8
0
 62
     7
100
AcDbLine
 10
-8.196721
 20
48.524713
 30
1.0
 11
-6.964221
 21
48.903027
 31
1.0
  0
LINE
  5
78
330
2
100
AcDbEntity
  8
0
 62
     7
100
AcDbLine
 10
-12.780959
 20
46.405145
 30
1.0
 11
-11.67887
 21
47.02442
 31
1.0
  0
LINE
  5
79
330
2
100
AcDbEntity
  8
0
 62
     7
100
AcDbLine
 10
-11.67887
 20
47.02442
 30
1.0
 11
-10.551401
 21
47.586502
 31
1.0
  0
LINE
  5
7A
330
2
100
AcDbEntity
  8
0
 62
     7
100
AcDbLine
 10
-10.551401
 20
47.586502
 30
1.0
 11
-9.390667999999999
 21
48.086581
 31
1.0
  0
LINE
  5
7B
330
2
100
AcDbEntity
  8
0
 62
     7
100
AcDbLine
 10
-7.385438999999999
 20
47.35098299999999
 30
1.0
 11
-12.128571
 21
44.972424
 31
1.0
  0
LINE
  5
7C
330
2
100
AcDbEntity
  8
0
 62
     7
100
AcDbLine
 10
-6.964221
 20
48.903027
 30
1.0
 11
-5.688970999999999
 21
49.223233
 31
1.0
  0
LINE
  5
7D
330
2
100
AcDbEntity
  8
0
 62
     7
100
AcDbLine
 10
-4.322117999999999
 20
48.116946
 30
1.0
 11
-7.385438999999999
 21
47.35098299999999
 31
1.0
  0
LINE
  5
7E
330
2
100
AcDbEntity
  8
0
 62
     7
100
AcDbLine
 10
-12.474411
 20
35.90173
 30
1.0
 11
-11.634492
 21
37.796484
 31
1.0
  0
LINE
  5
7F
330
2
100
AcDbEntity
  8
0
 62
     7
100
AcDbLine
 10
-10.201671
 20
40.49754
 30
1.0
 11
-7.978292999999998
 21
43.843631
 31
1.0
  0
LINE
  5
80
330
2
100
AcDbEntity
  8
0
 62
     7
100
AcDbLine
 10
-15.99603
 20
44.213605
 30
1.0
 11
-14.942259
 21
45.015399
 31
1.0
  0
LINE
  5
81
330
2
100
AcDbEntity
  8
0
 62
     7
100
AcDbLine
 10
-18.945749
 20
41.09357
 30
1.0
 11
-18.018347
 21
42.216031
 31
1.0
  0
LINE
  5
82
330
2
100
AcDbEntity
  8
0
 62
     7
100
AcDbLine
 10
-18.018347
 20
42.216031
 30
1.0
 11
-17.021442
 21
43.28068499999999
 31
1.0
  0
LINE
  5
83
330
2
100
AcDbEntity
  8
0
 62
     7
100
AcDbLine
 10
-17.021442
 20
43.28068499999999
 30
1.0
 11
-15.99603
 21
44.213605
 31
1.0
  0
LINE
  5
84
330
2
100
AcDbEntity
  8
0
 62
     7
100
AcDbLine
 10
-14.942259
 20
45.015399
 30
1.0
 11
-13.868704
 21
45.735489
 31
1.0
  0
LINE
  5
85
330
2
100
AcDbEntity
  8
0
 62
     7
100
AcDbLine
 10
-16.427039
 20
40.013788
 30
1.0
 11
-17.563408
 21
38.280267
 31
1.0
  0
LINE
  5
86
330
2
100
AcDbEntity
  8
0
 62
     7
100
AcDbLine
 10
-21.479515
 20
37.106259
 30
1.0
 11
-20.926538
 21
38.115369
 31
1.0
  0
LINE
  5
87
330
2
100
AcDbEntity
  8
0
 62
     7
100
AcDbLine
 10
-20.926538
 20
38.115369
 30
1.0
 11
-20.375851
 21
39.064743
 31
1.0
  0
LINE
  5
88
330
2
100
AcDbEntity
  8
0
 62
     7
100
AcDbLine
 10
-20.375851
 20
39.064743
 30
1.0
 11
-19.732007
 21
40.042346
 31
1.0
  0
LINE
  5
89
330
2
100
AcDbEntity
  8
0
 62
     7
100
AcDbLine
 10
-22.587936
 20
34.850327
 30
1.0
 11
-22.037222
 21
36.03512
 31
1.0
  0
LINE
  5
8A
330
2
100
AcDbEntity
  8
0
 62
     7
100
AcDbLine
 10
-23.106226
 20
33.440723
 30
1.0
 11
-22.587936
 21
34.850327
 31
1.0
  0
LINE
  5
8B
330
2
100
AcDbEntity
  8
0
 62
     7
100
AcDbLine
 10
-22.037222
 20
36.03512
 30
1.0
 11
-21.479515
 21
37.106259
 31
1.0
  0
LINE
  5
8C
330
2
100
AcDbEntity
  8
0
 62
     7
100
AcDbLine
 10
-18.205725
 20
36.022656
 30
1.0
 11
-19.440871
 21
33.805383
 31
1.0
  0
LINE
  5
8D
330
2
100
AcDbEntity
  8
0
 62
     7
100
AcDbLine
 10
-19.732007
 20
40.042346
 30
1.0
 11
-18.945749
 21
41.09357
 31
1.0
  0
LINE
  5
8E
330
2
100
AcDbEntity
  8
0
 62
     7
100
AcDbLine
 10
-12.770863
 20
44.16615
 30
1.0
 11
-14.697737
 21
42.0698
 31
1.0
  0
LINE
  5
8F
330
2
100
AcDbEntity
  8
0
 62
     7
100
AcDbLine
 10
-13.868704
 20
45.735489
 30
1.0
 11
-12.780959
 21
46.405145
 31
1.0
  0
LINE
  5
90
330
2
100
AcDbEntity
  8
0
 62
     7
100
AcDbLine
 10
-5.688970999999999
 20
49.223233
 30
1.0
 11
-4.371021999999999
 21
49.485303
 31
1.0
  0
LINE
  5
91
330
2
100
AcDbEntity
  8
0
 62
     7
100
AcDbLine
 10
-15.34003
 20
26.186002
 30
1.0
 11
-15.142404
 21
29.975537
 31
1.0
  0
LINE
  5
92
330
2
100
AcDbEntity
  8
0
 62
     7
100
AcDbLine
 10
-24.027779
 20
30.056433
 30
1.0
 11
-23.591325
 21
31.802545
 31
1.0
  0
LINE
  5
93
330
2
100
AcDbEntity
  8
0
 62
     7
100
AcDbLine
 10
-24.939487
 20
25.042484
 30
1.0
 11
-24.82619
 21
25.95061
 31
1.0
  0
LINE
  5
94
330
2
100
AcDbEntity
  8
0
 62
     7
100
AcDbLine
 10
-24.82619
 20
25.95061
 30
1.0
 11
-24.643622
 21
27.115411
 31
1.0
  0
LINE
  5
95
330
2
100
AcDbEntity
  8
0
 62
     7
100
AcDbLine
 10
-24.643622
 20
27.115411
 30
1.0
 11
-24.379086
 21
28.489972
 31
1.0
  0
LINE
  5
96
330
2
100
AcDbEntity
  8
0
 62
     7
100
AcDbLine
 10
-24.379086
 20
28.489972
 30
1.0
 11
-24.027779
 21
30.056433
 31
1.0
  0
LINE
  5
97
330
2
100
AcDbEntity
  8
0
 62
     7
100
AcDbLine
 10
-24.640341
 20
21.813046
 30
1.0
 11
-24.841449
 21
23.006686
 31
1.0
  0
LINE
  5
98
330
2
100
AcDbEntity
  8
0
 62
     7
100
AcDbLine
 10
-24.841449
 20
23.006686
 30
1.0
 11
-24.955713
 21
23.857617
 31
1.0
  0
LINE
  5
99
330
2
100
AcDbEntity
  8
0
 62
     7
100
AcDbLine
 10
-24.955713
 20
23.857617
 30
1.0
 11
-24.984146
 21
24.393555
 31
1.0
  0
LINE
  5
9A
330
2
100
AcDbEntity
  8
0
 62
     7
100
AcDbLine
 10
-23.30141
 20
16.478281
 30
1.0
 11
-23.706911
 21
17.711392
 31
1.0
  0
LINE
  5
9B
330
2
100
AcDbEntity
  8
0
 62
     7
100
AcDbLine
 10
-23.706911
 20
17.711392
 30
1.0
 11
-24.052293
 21
18.997501
 31
1.0
  0
LINE
  5
9C
330
2
100
AcDbEntity
  8
0
 62
     7
100
AcDbLine
 10
-24.052293
 20
18.997501
 30
1.0
 11
-24.364438
 21
20.372723
 31
1.0
  0
LINE
  5
9D
330
2
100
AcDbEntity
  8
0
 62
     7
100
AcDbLine
 10
-24.364438
 20
20.372723
 30
1.0
 11
-24.640341
 21
21.813046
 31
1.0
  0
LINE
  5
9E
330
2
100
AcDbEntity
  8
0
 62
     7
100
AcDbLine
 10
-19.786736
 20
27.919498
 30
1.0
 11
-19.292656
 21
23.807466
 31
1.0
  0
LINE
  5
9F
330
2
100
AcDbEntity
  8
0
 62
     7
100
AcDbLine
 10
-21.36777
 20
28.725769
 30
1.0
 11
-21.36777
 21
22.678625
 31
1.0
  0
LINE
  5
A0
330
2
100
AcDbEntity
  8
0
 62
     7
100
AcDbLine
 10
-24.984146
 20
24.393555
 30
1.0
 11
-24.939487
 21
25.042484
 31
1.0
  0
LINE
  5
A1
330
2
100
AcDbEntity
  8
0
 62
     7
100
AcDbLine
 10
-0.322646
 20
0.0126390000000001
 30
1.0
 11
-2.029795
 21
0.1508840000000013
 31
1.0
  0
LINE
  5
A2
330
2
100
AcDbEntity
  8
0
 62
     7
100
AcDbLine
 10
-3.888108
 20
0.3730760000000011
 30
1.0
 11
-5.670125999999999
 21
0.7034279999999989
 31
1.0
  0
LINE
  5
A3
330
2
100
AcDbEntity
  8
0
 62
     7
100
AcDbLine
 10
-1.456498999999999
 20
0.7073959999999993
 30
1.0
 11
-4.964459999999999
 21
1.674928000000001
 31
1.0
  0
LINE
  5
A4
330
2
100
AcDbEntity
  8
0
 62
     7
100
AcDbLine
 10
-2.029795
 20
0.1508840000000013
 30
1.0
 11
-3.888108
 21
0.3730760000000011
 31
1.0
  0
LINE
  5
A5
330
2
100
AcDbEntity
  8
0
 62
     7
100
AcDbLine
 10
-7.344444
 20
1.145322
 30
1.0
 11
-8.905821000000001
 21
1.69011
 31
1.0
  0
LINE
  5
A6
330
2
100
AcDbEntity
  8
0
 62
     7
100
AcDbLine
 10
-10.324605
 20
2.289066999999999
 30
1.0
 11
-11.596244
 21
2.934511999999998
 31
1.0
  0
LINE
  5
A7
330
2
100
AcDbEntity
  8
0
 62
     7
100
AcDbLine
 10
-11.596244
 20
2.934511999999998
 30
1.0
 11
-12.743066
 21
3.631913
 31
1.0
  0
LINE
  5
A8
330
2
100
AcDbEntity
  8
0
 62
     7
100
AcDbLine
 10
-8.905821000000001
 20
1.69011
 30
1.0
 11
-10.324605
 21
2.289066999999999
 31
1.0
  0
LINE
  5
A9
330
2
100
AcDbEntity
  8
0
 62
     7
100
AcDbLine
 10
-5.952617
 20
2.481225999999999
 30
1.0
 11
-10.399271
 21
6.270762000000001
 31
1.0
  0
LINE
  5
AA
330
2
100
AcDbEntity
  8
0
 62
     7
100
AcDbLine
 10
-5.670125999999999
 20
0.7034279999999989
 30
1.0
 11
-7.344444
 21
1.145322
 31
1.0
  0
LINE
  5
AB
330
2
100
AcDbEntity
  8
0
 62
     7
100
AcDbLine
 10
-11.980332
 20
7.883332000000002
 30
1.0
 11
-12.919077
 21
11.995362
 31
1.0
  0
LINE
  5
AC
330
2
100
AcDbEntity
  8
0
 62
     7
100
AcDbLine
 10
-18.491293
 20
8.435978999999999
 30
1.0
 11
-19.389397
 21
9.640327
 31
1.0
  0
LINE
  5
AD
330
2
100
AcDbEntity
  8
0
 62
     7
100
AcDbLine
 10
-22.009427
 20
13.768378
 30
1.0
 11
-22.738489
 21
15.16786
 31
1.0
  0
LINE
  5
AE
330
2
100
AcDbEntity
  8
0
 62
     7
100
AcDbLine
 10
-20.267004
 20
10.931828
 30
1.0
 11
-21.144662
 21
12.312439
 31
1.0
  0
LINE
  5
AF
330
2
100
AcDbEntity
  8
0
 62
     7
100
AcDbLine
 10
-21.144662
 20
12.312439
 30
1.0
 11
-22.009427
 21
13.768378
 31
1.0
  0
LINE
  5
B0
330
2
100
AcDbEntity
  8
0
 62
     7
100
AcDbLine
 10
-19.389397
 20
9.640327
 30
1.0
 11
-20.267004
 21
10.931828
 31
1.0
  0
LINE
  5
B1
330
2
100
AcDbEntity
  8
0
 62
     7
100
AcDbLine
 10
-13.907335
 20
4.416111
 30
1.0
 11
-15.114404
 21
5.293286000000001
 31
1.0
  0
LINE
  5
B2
330
2
100
AcDbEntity
  8
0
 62
     7
100
AcDbLine
 10
-16.347006
 20
6.261834999999997
 30
1.0
 11
-17.480858
 21
7.310161999999998
 31
1.0
  0
LINE
  5
B3
330
2
100
AcDbEntity
  8
0
 62
     7
100
AcDbLine
 10
-15.114404
 20
5.293286000000001
 30
1.0
 11
-16.347006
 21
6.261834999999997
 31
1.0
  0
LINE
  5
B4
330
2
100
AcDbEntity
  8
0
 62
     7
100
AcDbLine
 10
-17.480858
 20
7.310161999999998
 30
1.0
 11
-18.491293
 21
8.435978999999999
 31
1.0
  0
LINE
  5
B5
330
2
100
AcDbEntity
  8
0
 62
     7
100
AcDbLine
 10
-12.743066
 20
3.631913
 30
1.0
 11
-13.907335
 21
4.416111
 31
1.0
  0
LINE
  5
B6
330
2
100
AcDbEntity
  8
0
 62
     7
100
AcDbLine
 10
-20.873691
 20
19.010065
 30
1.0
 11
-18.35394
 21
15.018935
 31
1.0
  0
LINE
  5
B7
330
2
100
AcDbEntity
  8
0
 62
     7
100
AcDbLine
 10
-14.203659
 20
14.736749
 30
1.0
 11
-15.34003
 21
21.06608
 31
1.0
  0
LINE
  5
B8
330
2
100
AcDbEntity
  8
0
 62
     7
100
AcDbLine
 10
-22.738489
 20
15.16786
 30
1.0
 11
-23.30141
 21
16.478281
 31
1.0
  0
LINE
  5
B9
330
2
100
AcDbEntity
  8
0
 62
     7
100
AcDbLine
 10
-14.055447
 20
32.23312100000001
 30
1.0
 11
-13.561368
 21
33.644122
 31
1.0
  0
LINE
  5
BA
330
2
100
AcDbEntity
  8
0
 62
     7
100
AcDbLine
 10
-23.591325
 20
31.802545
 30
1.0
 11
-23.106226
 21
33.440723
 31
1.0
  0
LINE
  5
BB
330
2
100
AcDbEntity
  8
0
 62
     7
100
AcDbLine
 10
-0.096817
 20
0.1441949999999998
 30
1.0
 11
0.0
 21
0.0
 31
1.0
  0
LINE
  5
BC
330
2
100
AcDbEntity
  8
0
 62
     7
100
AcDbLine
 10
-0.369542
 20
44.48867199999999
 30
1.0
 11
0.4210140000000001
 21
39.852527
 31
1.0
  0
LINE
  5
BD
330
2
100
AcDbEntity
  8
0
 62
     7
100
AcDbLine
 10
-0.221328
 20
48.278204
 30
1.0
 11
3.138419999999999
 21
44.649902
 31
1.0
  0
LINE
  5
BE
330
2
100
AcDbEntity
  8
0
 62
     7
100
AcDbLine
 10
5.637828999999999
 20
49.264758
 30
1.0
 11
0.0
 21
49.9159
 31
1.0
  0
LINE
  5
BF
330
2
100
AcDbEntity
  8
0
 62
     7
100
AcDbLine
 10
1.188045999999999
 20
-0.0465389999999992
 30
1.0
 11
-0.322646
 21
0.0126390000000001
 31
1.0
  0
REGION
  5
C0
330
2
100
AcDbEntity
  8
0
  6
Continuous
100
AcDbModelerGeometry
 70
     1
  1
koo mmi n o         
  1
ni ^ *+0;:,4 ^ *+0\^ [ nh ^ LR nmqoqnqfnj QK o  
  1
mjqlffffffffffffff fqfffffffffffffffj:rooh n:rono 
  1
=0;& {rn {n {rn {rn |
  1
3*2/ {rn {rn {m {o |
  1
,7:33 {rn {rn {rn {l {rn {n |
  1
9><: {rn {rn {k {m {rn {j 90-(>-; ;0*=3: 0*+ |
  1
300/ {rn {rn {i {l |
  1
/3>1:r,*-9><: {rn oqnoijlffoigmgokkjf mjqhkkimfofilfhoof n o o n n o o 90-(>-;@) V V V V |
  1
<0:;8: {rn {h {g {rn {f -:):-,:; {k {rn |
  1
<0:;8: {rn {no {i {rn {nn -:):-,:; {k {rn |
  1
<0:;8: {rn {i {nm {rn {nl -:):-,:; {k {rn |
  1
:;8: {rn {nk {nj {i {ni 90-(>-; |
  1
<0:;8: {rn {nh {h {rn {ng -:):-,:; {k {rn |
  1
:;8: {rn {nf {nk {h {mo 90-(>-; |
  1
<0:;8: {rn {g {mn {rn {mm -:):-,:; {k {rn |
  1
:;8: {rn {nj {ml {g {mk 90-(>-; |
  1
):-+:' {rn {f {mj |
  1
):-+:' {rn {f {mi |
  1
,+->687+r<*-): {rn roqgigjhoglhflkhgmoh kfqgigkoklghljkgon n oqffjfjnfmhlglfmog roqogfgghkhjffmmmflf o V V |
  1
<0:;8: {rn {mh {no {rn {mg -:):-,:; {k {rn |
  1
:;8: {rn {mf {nf {no {lo 90-(>-; |
  1
):-+:' {rn {ng {ln |
  1
,+->687+r<*-): {rn rlqkggfjklnimgfmlli kfqinjmnkhhononggi n oqffjlikknfffgllhnk oqofinhjmnnffomhmfkk o V V |
  1
<0:;8: {rn {nm {lm {rn {ll -:):-,:; {k {rn |
  1
:;8: {rn {ml {lk {nm {lj 90-(>-; |
  1
):-+:' {rn {nl {li |
  1
,+->687+r<*-): {rn kqfghnmonmfhnmnkgi kfqllffnnhmfkminil n oqfjmnlgonofijnfkf roqlojiigkinoknnnlml o V V |
  1
/061+ {rn roqgigjhoglhflkhgmoh kfqgigkoklghljkgon n |
  1
/061+ {rn kqfghnmonmfhnmnkgi kfqllffnnhmfkminil n |
  1
<0:;8: {rn {lh {nh {rn {lg -:):-,:; {k {rn |
  1
:;8: {rn {lf {mf {nh {ko 90-(>-; |
  1
):-+:' {rn {mg {kn |
  1
,+->687+r<*-): {rn rkqhhmokglgojhgikmm kfqkojjionifingiih n oqfgifnmofimhnhmikf oqninmjfnjmlfflnhmf o V V |
  1
/061+ {rn rlqkggfjklnimgfmlli kfqinjmnkhhononggi n |
  1
<0:;8: {rn {mn {km {rn {kl -:):-,:; {k {rn |
  1
:;8: {rn {lk {kk {mn {kj 90-(>-; |
  1
):-+:' {rn {mm {ki |
  1
,+->687+r<*-): {rn hqiihgkijonkolgill kgqkhflogonfjfjioh n oqfnliokjlgkkohgmok roqkoiiolfnfkgkgojon o V V |
  1
/061+ {rn hqiihgkijonkolgill kgqkhflogonfjfjioh n |
  1
<0:;8: {rn {kh {mh {rn {kg -:):-,:; {k {rn |
  1
:;8: {rn {kf {lf {mh {jo 90-(>-; |
  1
):-+:' {rn {lg {jn |
  1
,+->687+r<*-): {rn rhqljgggniikikkilmf kgqhgnggijoflglghk n oqfhmnkjnmmnijhihlm oqmlklhfhlhhnoillhg o V V |
  1
/061+ {rn rkqhhmokglgojhgikmm kfqkojjionifingiih n |
  1
<0:;8: {rn {lm {jm {rn {jl -:):-,:; {k {rn |
  1
:;8: {rn {kk {jk {lm {jj 90-(>-; |
  1
):-+:' {rn {ll {ji |
  1
,+->687+r<*-): {rn nnqgggmjljgmngonkl kiqiooffiljjjikjnf n oqgjkghjmhgifmfjmjk roqjngglljjjogmjfhjk o V V |
  1
/061+ {rn nnqgggmjljgmngonkl kiqiooffiljjjikjnf n |
  1
<0:;8: {rn {jh {lh {rn {jg -:):-,:; {k {rn |
  1
:;8: {rn {jf {kf {lh {io 90-(>-; |
  1
):-+:' {rn {kg {in |
  1
,+->687+r<*-): {rn rnoqojonmjngokfjgig khqgomkiiglkhjiglj n oqflfhojmgjmhmflmng oqlknfgjlkjfmgfnnnh o V V |
  1
/061+ {rn rhqljgggniikikkilmf kgqhgnggijoflglghk n |
  1
<0:;8: {rn {km {im {rn {il -:):-,:; {k {rn |
  1
:;8: {rn {jk {ik {km {ij 90-(>-; |
  1
):-+:' {rn {kl {ii |
  1
,+->687+r<*-): {rn nkqhijfonmholgkhog kkqgjkjnfnjghilmmj n oqgonfhhmihmolkhmmf roqjfhljkjjlhjmjonjh o V V |
  1
/061+ {rn nkqhijfonmholgkhog kkqgjkjnfnjghilmmj n |
  1
<0:;8: {rn {ih {kh {rn {ig -:):-,:; {k {rn |
  1
:;8: {rn {if {jf {kh {ho 90-(>-; |
  1
):-+:' {rn {jg {hn |
  1
,+->687+r<*-): {rn rnmqhgofjgfffffffff kiqkojnkjooooooooj n oqgfommgnfiklgflnmj oqkjjjnkgmhhnnjjkgg o V V |
  1
/061+ {rn rnoqojonmjngokfjgig khqgomkiiglkhjiglj n |
  1
<0:;8: {rn {jm {hm {rn {hl -:):-,:; {k {rn |
  1
:;8: {rn {ik {hk {jm {hj 90-(>-; |
  1
):-+:' {rn {jl {hi |
  1
,+->687+r<*-): {rn niqjnokgfmjofojmgh klqjjjojgfnjignff n oqhmjjhimhjkimjmfji roqiggnknhjomgjkjoii o V V |
  1
/061+ {rn niqjnokgfmjofojmgh klqjjjojgfnjignff n |
  1
<0:;8: {rn {hh {jh {rn {hg -:):-,:; {k {rn |
  1
:;8: {rn {hf {if {jh {go 90-(>-; |
  1
):-+:' {rn {ig {gn |
  1
,+->687+r<*-): {rn rniqogomhnfiihnhmom kkqnlifinikjllggli n oqgmkojmfmoifjknool oqjiijnmgmhijnmojnk o V V |
  1
/061+ {rn rnmqhgofjgfffffffff kiqkojnkjooooooooj n |
  1
<0:;8: {rn {im {gm {rn {gl -:):-,:; {k {rn |
  1
:;8: {rn {hk {gk {im {gj 90-(>-; |
  1
):-+:' {rn {il {gi |
  1
,+->687+r<*-): {rn ngqfnfnkjkgnfggfhh knqmhoihmokgijlhmm n oqinmofmmhliofjhnnf roqhfohgilkgmjjimkjj o V V |
  1
/061+ {rn ngqfnfnkjkgnfggfhh knqmhoihmokgijlhmm n |
  1
<0:;8: {rn {gh {ih {rn {gg -:):-,:; {k {rn |
  1
:;8: {rn {gf {hf {ih {fo 90-(>-; |
  1
):-+:' {rn {hg {fn |
  1
,+->687+r<*-): {rn rnfqmonomgmoniniggf koqhjmmimiilflkof n oqihhgjffgoojkklli oqhljnfnomhgjikliof o V V |
  1
/061+ {rn rniqogomhnfiihnhmom kkqnlifinikjllggli n |
  1
<0:;8: {rn {hm {fm {rn {fl -:):-,:; {k {rn |
  1
:;8: {rn {gk {fk {hm {fj 90-(>-; |
  1
):-+:' {rn {hl {fi |
  1
,+->687+r<*-): {rn mnqmmlhkkkiinfojgj lgqmflmigfhgofkffl n oqkjhhinfkjlgofimgm roqggfohkgoohigmnmll o V V |
  1
/061+ {rn mnqmmlhkkkiinfojgj lgqmflmigfhgofkffl n |
  1
<0:;8: {rn {fh {hh {rn {fg -:):-,:; {k {rn |
  1
:;8: {rn {ff {gf {hh {noo 90-(>-; |
  1
):-+:' {rn {gg {non |
  1
,+->687+r<*-): {rn rmoqfmijlgoooooooon lgqnnjlifoooooooon n oqjkhjjhijkjkmnmgig oqglihihfjhijnjli o V V |
  1
/061+ {rn rnfqmonomgmoniniggf koqhjmmimiilflkof n |
  1
<0:;8: {rn {gm {nom {rn {nol -:):-,:; {k {rn |
  1
:;8: {rn {fk {nok {gm {noj 90-(>-; |
  1
):-+:' {rn {gl {noi |
  1
,+->687+r<*-): {rn mmqghhmoniinijjmkm ljqognggffnikonkfk n oqlmiffjjokjkohhgol roqfkjomjgflglokfmfi o V V |
  1
/061+ {rn mmqghhmoniinijjmkm ljqognggffnikonkfk n |
  1
<0:;8: {rn {noh {gh {rn {nog -:):-,:; {k {rn |
  1
:;8: {rn {nof {ff {gh {nno 90-(>-; |
  1
):-+:' {rn {fg {nnn |
  1
,+->687+r<*-): {rn rmmqmkhffnlijjlhln ljqjgnihjgookiklfi n oqkimkljhjnnjolfook oqggiijmhflkohgihjn o V V |
  1
/061+ {rn rmoqfmijlgoooooooon lgqnnjlifoooooooon n |
  1
<0:;8: {rn {fm {nnm {rn {nnl -:):-,:; {k {rn |
  1
:;8: {rn {nok {nnk {fm {nnj 90-(>-; |
  1
):-+:' {rn {fl {nni |
  1
,+->687+r<*-): {rn mkqnnmimlfomlmmloj lnqjnnkgioifhihlij n oqnkjgfkimnikmlkioh roqfgfloonlinkkijifj o V V |
  1
/061+ {rn mkqnnmimlfomlmmloj lnqjnnkgioifhihlij n |
  1
<0:;8: {rn {nnh {fh {rn {nng -:):-,:; {k {rn |
  1
:;8: {rn {nnf {nof {fh {nmo 90-(>-; |
  1
):-+:' {rn {nog {nmn |
  1
,+->687+r<*-): {rn rmlqljhfkjjnmflihni lmqjfoiiigfnlmngfj n oqlkhfnlmijkmgofffm oqflhjmihmkgnllonhf o V V |
  1
/061+ {rn rmmqmkhffnlijjlhln ljqjgnihjgookiklfi n |
  1
<0:;8: {rn {nom {nmm {rn {nml -:):-,:; {k {rn |
  1
:;8: {rn {nnk {nmk {nom {nmj 90-(>-; |
  1
):-+:' {rn {nol {nmi |
  1
,+->687+r<*-): {rn mkqhfhgnjnjkjkjgml miqgijmjhmmihfojhm n roqonjjlonnmlljjjnjmi roqfffghfkoojlllohok o V V |
  1
/061+ {rn mkqhfhgnjnjkjkjgml miqgijmjhmmihfojhm n |
  1
<0:;8: {rn {nmh {noh {rn {nmg -:):-,:; {k {rn |
  1
:;8: {rn {nmf {nnf {noh {nlo 90-(>-; |
  1
):-+:' {rn {nng {nln |
  1
,+->687+r<*-): {rn rmkqmgkkjfgjifnklnh mgqfnnfojknikmjljf n oqmkkmmgmlhlnliofki oqfifhnhhhhjjnnmnfg o V V |
  1
/061+ {rn rmlqljhfkjjnmflihni lmqjfoiiigfnlmngfj n |
  1
<0:;8: {rn {nnm {nlm {rn {nll -:):-,:; {k {rn |
  1
:;8: {rn {nmk {nlk {nnm {nlj 90-(>-; |
  1
):-+:' {rn {nnl {nli |
  1
,+->687+r<*-): {rn mkqhkmfjionkojofgm mlqlllmkikmjihnfof n roqofimjnjilnofihfnjl roqffjljholfhjfjhkjh o V V |
  1
/061+ {rn mkqhkmfjionkojofgm mlqlllmkikmjihnfof n |
  1
<0:;8: {rn {nlh {nnh {rn {nlg -:):-,:; {k {rn |
  1
:;8: {rn {nlf {nmf {nnh {nko 90-(>-; |
  1
):-+:' {rn {nmg {nkn |
  1
,+->687+r<*-): {rn rmkqfkjmihoogfhillk mkqfjgkfinokojjojn n oqnikginjlgghfjnghf oqfgilnihmokmfmlmki o V V |
  1
/061+ {rn rmkqmgkkjfgjifnklnh mgqfnnfojknikmjljf n |
  1
<0:;8: {rn {nmm {nkm {rn {nkl -:):-,:; {k {rn |
  1
:;8: {rn {nlk {nkk {nmm {nkj 90-(>-; |
  1
):-+:' {rn {nml {nki |
  1
,+->687+r<*-): {rn mkqlfhoogkijokgogf nfqhjjhlmmgmfnmmjj n roqmjioljkojmlgjkmoh roqfiiiihkokihiihlkj o V V |
  1
/061+ {rn mkqlfhoogkijokgogf nfqhjjhlmmgmfnmmjj n |
  1
<0:;8: {rn {nkh {nmh {rn {nkg -:):-,:; {k {rn |
  1
:;8: {rn {nkf {nlf {nmh {njo 90-(>-; |
  1
):-+:' {rn {nlg {njn |
  1
,+->687+r<*-): {rn rmkqjijnilhijfghgll mnqkmojfnokjgnikjg n roqnoigmmilnmjolfmnj oqffkmhgofminkloinn o V V |
  1
/061+ {rn rmkqfkjmihoogfhillk mkqfjgkfinokojjojn n |
  1
<0:;8: {rn {nlm {njm {rn {njl -:):-,:; {k {rn |
  1
:;8: {rn {nkk {njk {nlm {njj 90-(>-; |
  1
):-+:' {rn {nll {nji |
  1
,+->687+r<*-): {rn mlqkhfgfkomhnfmjmf niqmflnkinfonjnj n roqkkomongmfnmgkgflh roqgfhgfggjmihlmkilm o V V |
  1
/061+ {rn mlqkhfgfkomhnfmjmf niqmflnkinfonjnj n |
  1
<0:;8: {rn {njh {nlh {rn {njg -:):-,:; {k {rn |
  1
:;8: {rn {njf {nkf {nlh {nio 90-(>-; |
  1
):-+:' {rn {nkg {nin |
  1
,+->687+r<*-): {rn rmlqhkmmflngijkjmhm nhqgklnkjihhmkgglj n roqmmknimhlijfjknkkn oqfhkjjnhmikkhimfll o V V |
  1
/061+ {rn rmkqjijnilhijfghgll mnqkmojfnokjgnikjg n |
  1
<0:;8: {rn {nkm {nim {rn {nil -:):-,:; {k {rn |
  1
:;8: {rn {njk {nik {nkm {nij 90-(>-; |
  1
):-+:' {rn {nkl {nii |
  1
,+->687+r<*-): {rn mnqlofomlffffffffh nnqgijnmg n roqjighnolimonjmijkg roqgmmjlhgjjhkihjmik o V V |
  1
/061+ {rn mnqlofomlffffffffh nnqgijnmg n |
  1
<0:;8: {rn {nih {nkh {rn {nig -:):-,:; {k {rn |
  1
:;8: {rn {nif {njf {nkh {nho 90-(>-; |
  1
):-+:' {rn {njg {nhn |
  1
,+->687+r<*-): {rn rmmqkoolnkfionihkmn nkqjnghnmfonflonhf n roqlhklmliiffnkohnlk oqfmhmfgnnmghjmglog o V V |
  1
/061+ {rn rmlqhkmmflngijkjmhm nhqgklnkjihhmkgglj n |
  1
<0:;8: {rn {njm {nhm {rn {nhl -:):-,:; {k {rn |
  1
:;8: {rn {nik {nhk {njm {nhj 90-(>-; |
  1
):-+:' {rn {njl {nhi |
  1
,+->687+r<*-): {rn moqoiolfgolkkfihmg noqojfmnlhgfhmliki n roqinojongfgmgnokmhl roqhfmonkhfmfnkkommk o V V |
  1
/061+ {rn moqoiolfgolkkfihmg noqojfmnlhgfhmliki n |
  1
<0:;8: {rn {nhh {njh {rn {nhg -:):-,:; {k {rn |
  1
:;8: {rn {nhf {nif {njh {ngo 90-(>-; |
  1
):-+:' {rn {nig {ngn |
  1
,+->687+r<*-): {rn rmoqlffimfnkgnjknfh nnqnkokjjiikoffjgk n roqjofjihhffhjojnlmj oqgioklojohokhnjmfi o V V |
  1
/061+ {rn rmmqkoolnkfionihkmn nkqjnghnmfonflonhf n |
  1
<0:;8: {rn {nim {ngm {rn {ngl -:):-,:; {k {rn |
  1
:;8: {rn {nhk {ngk {nim {ngj 90-(>-; |
  1
):-+:' {rn {nil {ngi |
  1
,+->687+r<*-): {rn ngqhhgmgggjfojlnmh gqlfjfnnnmighgfnfh n roqholfnnnkoojoihkon roqhnomggokjoloonkhj o V V |
  1
/061+ {rn ngqhhgmgggjfojlnmh gqlfjfnnnmighgfnfh n |
  1
<0:;8: {rn {ngh {nih {rn {ngg -:):-,:; {k {rn |
  1
:;8: {rn {ngf {nhf {nih {nfo 90-(>-; |
  1
):-+:' {rn {nhg {nfn |
  1
,+->687+r<*-): {rn rngqjimhjhikjhfklmg gqjlngnmllifllmjig n roqjhjhlikkfnkhgflhf oqgnhiljlljojonjmng o V V |
  1
/061+ {rn rmoqlffimfnkgnjknfh nnqnkokjjiikoffjgk n |
  1
<0:;8: {rn {nhm {nfm {rn {nfl -:):-,:; {k {rn |
  1
:;8: {rn {ngk {nfk {nhm {nfj 90-(>-; |
  1
):-+:' {rn {nhl {nfi |
  1
,+->687+r<*-): {rn njqiknnkgfihnjlhlk jqmloljnnoflfflmih n roqgmjlnhmiinmnookjl roqjikiifmfmgnoookhh o V V |
  1
/061+ {rn njqiknnkgfihnjlhlk jqmloljnnoflfflmih n |
  1
<0:;8: {rn {nfh {nhh {rn {nfg -:):-,:; {k {rn |
  1
:;8: {rn {nff {ngf {nhh {moo 90-(>-; |
  1
):-+:' {rn {ngg {mon |
  1
,+->687+r<*-): {rn rniqnklhlmnjjggikok iqnomnohlolmhnfjhn n roqhojjkhiljgokgllgm oqhogiimkfimilljkgh o V V |
  1
/061+ {rn rngqjimhjhikjhfklmg gqjlngnmllifllmjig n |
  1
<0:;8: {rn {ngm {mom {rn {mol -:):-,:; {k {rn |
  1
:;8: {rn {nfk {mok {ngm {moj 90-(>-; |
  1
):-+:' {rn {ngl {moi |
  1
,+->687+r<*-): {rn nlqlijigkmigmgfnij lqihljnllffhkfgjii n roqggohkmmhiijofmkfh roqkhljfjgilhoillogf o V V |
  1
/061+ {rn nlqlijigkmigmgfnij lqihljnllffhkfgjii n |
  1
<0:;8: {rn {moh {ngh {rn {mog -:):-,:; {k {rn |
  1
:;8: {rn {mof {nff {ngh {mno 90-(>-; |
  1
):-+:' {rn {nfg {mnn |
  1
,+->687+r<*-): {rn rnkqgjggnfihiinhlnf jqnohjjllokillinhm n roqhfohgglljhfkkkhhk oqinmogfhojgmojnhjg o V V |
  1
/061+ {rn rniqnklhlmnjjggikok iqnomnohlolmhnfjhn n |
  1
<0:;8: {rn {nfm {moh {rn {mnm -:):-,:; {k {rn |
  1
:;8: {rn {mok {mnl {nfm {mnk 90-(>-; |
  1
):-+:' {rn {nfl {mnj |
  1
,+->687+r<*-): {rn noqlljjigfhinljnii mqokknkfokhhoofmjf n roqfmkmliknnjnifnhni roqlgngmohnnlilhijj o V V |
  1
/061+ {rn noqlljjigfhinljnii mqokknkfokhhoofmjf n |
  1
<0:;8: {rn {mom {nfh {rn {mni -:):-,:; {k {rn |
  1
:;8: {rn {mnh {mof {nfh {mng 90-(>-; |
  1
):-+:' {rn {mog {mnf |
  1
,+->687+r<*-): {rn rnoqglhjhoikfljkigj mqjkfklmikfonkfjff n roqgklhkmgmfmomkiojg oqjlihkhikgkffmoim o V V |
  1
/061+ {rn rnkqgjggnfihiinhlnf jqnohjjllokillinhm n |
  1
:;8: {rn {mnl {mmo {mom {mmn 90-(>-; |
  1
):-+:' {rn {mol {mmm |
  1
,+->687+r<*-): {rn gqkfjlinooooooooog nqmglfmm n roqfihmnohnhjklnogin roqmjlfhjmjojoilnkm o V V |
  1
/061+ {rn gqkfjlinooooooooog nqmglfmm n |
  1
:;8: {rn {mmo {mnh {moh {mml 90-(>-; |
  1
):-+:' {rn {mni {mmk |
  1
,+->687+r<*-): {rn rkqimmhfngkomjjnfm oqjofmhmlnoomlhfjol n roqfjonnjoikonoimnim oqlnngffiohkhomkkol o V V |
  1
/061+ {rn rnoqglhjhoikfljkigj mqjkfklmikfonkfjff n |
  1
):-+:' {rn {mnm {mmj |
  1
,+->687+r<*-): {rn kqknimkoijgfojiokf oqmnmgojmlfjmnjofm n roqfffgihiokfkokjion roqonimhnglkmhlgiffk o V V |
  1
/061+ {rn kqknimkoijgfojiokf oqmnmgojmlfjmnjofm n |
  1
,+->687+r<*-): {rn rnqjghgkkkkfhhjigoh oqnnjofkgmjmfohmihf n roqffnihoggjmigihmkm oqnmghfhhlommmkmofn o V V |
  1
/061+ {rn rkqimmhfngkomjjnfm oqjofmhmlnoomlhfjol n |
  1
/061+ {rn rnqjghgkkkkfhhjigoh oqnnjofkgmjmfohmihf n |
  0
ATTDEF
  5
C7
330
2
100
AcDbEntity
  8
0
100
AcDbText
 10
1.354601693524557
 20
0.2175673177871715
 30
0.0
 40
5.0
  1
117/7
100
AcDbAttributeDefinition
  3

  2
CODICE
 70
     3
  0
ATTDEF
  5
C8
330
2
100
AcDbEntity
  8
0
100
AcDbText
 10
1.354601693524557
 20
-8.11576601554616
 30
0.0
 40
5.0
  1
1
100
AcDbAttributeDefinition
  3

  2
QUANT
 70
     3
  0
ATTDEF
  5
C9
330
2
100
AcDbEntity
  8
0
100
AcDbText
 10
1.354601693524557
 20
-16.44909934887949
 30
0.0
 40
5.0
  1
0
100
AcDbAttributeDefinition
  3

  2
LUNG
 70
     3
  0
ENDSEC
  0
SECTION
  2
OBJECTS
  0
DICTIONARY
  5
1A
330
0
100
AcDbDictionary
281
     1
  3
ACAD_COLOR
350
F8
  3
ACAD_GROUP
350
18
  3
ACAD_LAYOUT
350
120
  3
ACAD_MATERIAL
350
CE
  3
ACAD_MLEADERSTYLE
350
11D
  3
ACAD_MLINESTYLE
350
19
  3
ACAD_PLOTSETTINGS
350
121
  3
ACAD_PLOTSTYLENAME
350
CC
  3
ACAD_SCALELIST
350
FB
  3
ACAD_TABLESTYLE
350
F9
  3
ACAD_VISUALSTYLE
350
E7
  3
ACDB_RECOMPOSE_DATA
350
17A
  3
AcDbVariableDictionary
350
170
  3
AEC_PROPERTY_SET_DEFS
350
165
  3
DWGPROPS
350
17B
  3
qs_topprt_diz
350
129
  3
QSCATDICT
350
126
  3
QsPallStyleDict
350
128
  3
QsTop499
350
12D
  3
TopSpotLight
350
130
  0
DICTIONARY
  5
166
330
4
100
AcDbDictionary
280
     1
281
     1
  3
ADSK_XREC_LAYER_RECONCILED
360
167
  0
DICTIONARY
  5
168
330
12B
100
AcDbDictionary
280
     1
281
     1
  3
ADSK_XREC_LAYER_RECONCILED
360
169
  0
DICTIONARY
  5
16A
330
150
100
AcDbDictionary
280
     1
281
     1
  3
ADSK_XREC_LAYER_RECONCILED
360
16B
  0
DICTIONARY
  5
16C
330
151
100
AcDbDictionary
280
     1
281
     1
  3
ADSK_XREC_LAYER_RECONCILED
360
16D
  0
DICTIONARY
  5
16E
330
152
100
AcDbDictionary
280
     1
281
     1
  3
ADSK_XREC_LAYER_RECONCILED
360
16F
  0
DICTIONARY
  5
F8
102
{ACAD_REACTORS
330
1A
102
}
330
1A
100
AcDbDictionary
281
     1
  0
DICTIONARY
  5
18
102
{ACAD_REACTORS
330
1A
102
}
330
1A
100
AcDbDictionary
281
     1
  0
DICTIONARY
  5
120
102
{ACAD_REACTORS
330
1A
102
}
330
1A
100
AcDbDictionary
281
     1
  3
Layout1
350
123
  3
Model
350
122
  0
DICTIONARY
  5
CE
102
{ACAD_REACTORS
330
1A
102
}
330
1A
100
AcDbDictionary
281
     1
  3
ByBlock
350
D7
  3
ByLayer
350
CF
  3
Global
350
DF
  0
DICTIONARY
  5
11D
102
{ACAD_REACTORS
330
1A
102
}
330
1A
100
AcDbDictionary
281
     1
  3
Standard
350
11E
  0
DICTIONARY
  5
19
102
{ACAD_REACTORS
330
1A
102
}
330
1A
100
AcDbDictionary
281
     1
  3
STANDARD
350
1B
  0
DICTIONARY
  5
121
102
{ACAD_REACTORS
330
1A
102
}
330
1A
100
AcDbDictionary
281
     1
  0
ACDBDICTIONARYWDFLT
  5
CC
102
{ACAD_REACTORS
330
1A
102
}
330
1A
100
AcDbDictionary
281
     1
  3
Normal
350
CD
100
AcDbDictionaryWithDefault
340
CD
  0
DICTIONARY
  5
FB
102
{ACAD_REACTORS
330
1A
102
}
330
1A
100
AcDbDictionary
281
     1
  3
A0
350
FC
  3
A1
350
FD
  3
A2
350
FE
  3
A3
350
FF
  3
A4
350
100
  3
A5
350
101
  3
A6
350
102
  3
A7
350
103
  3
A8
350
104
  3
A9
350
105
  3
B0
350
106
  3
B1
350
107
  3
B2
350
108
  3
B3
350
109
  3
B4
350
10A
  3
B5
350
10B
  3
B6
350
10C
  3
B7
350
10D
  3
B8
350
10E
  3
B9
350
10F
  3
C0
350
110
  3
C1
350
111
  3
C2
350
112
  3
C3
350
113
  3
C4
350
114
  3
C5
350
115
  3
C6
350
116
  3
C7
350
117
  3
C8
350
118
  3
C9
350
119
  3
D0
350
11A
  3
D1
350
11B
  3
D2
350
11C
  0
DICTIONARY
  5
F9
102
{ACAD_REACTORS
330
1A
102
}
330
1A
100
AcDbDictionary
281
     1
  3
Standard
350
FA
  0
DICTIONARY
  5
E7
102
{ACAD_REACTORS
330
1A
102
}
330
1A
100
AcDbDictionary
281
     1
  3
2dWireframe
350
ED
  3
3D Hidden
350
EF
  3
3dWireframe
350
EE
  3
Basic
350
EC
  3
Brighten
350
F3
  3
ColorChange
350
F7
  3
Conceptual
350
F0
  3
Dim
350
F2
  3
Facepattern
350
F6
  3
Flat
350
E8
  3
FlatWithEdges
350
E9
  3
Gouraud
350
EA
  3
GouraudWithEdges
350
EB
  3
Linepattern
350
F5
  3
Realistic
350
F1
  3
Thicken
350
F4
  0
XRECORD
  5
17A
102
{ACAD_REACTORS
330
1A
102
}
330
1A
100
AcDbXrecord
280
     1
 90
        1
330
FA
  0
DICTIONARY
  5
170
102
{ACAD_REACTORS
330
1A
102
}
330
1A
100
AcDbDictionary
281
     1
  3
CANNOSCALE
350
174
  3
CMLEADERSTYLE
350
172
  3
CTABLESTYLE
350
171
  3
DIMASSOC
350
177
  3
DRAWORDERCTL
350
173
  3
INDEXCTL
350
176
  3
SORTENTS
350
175
  0
DICTIONARY
  5
165
102
{ACAD_REACTORS
330
1A
102
}
330
1A
100
AcDbDictionary
281
     1
  0
XRECORD
  5
17B
102
{ACAD_REACTORS
330
1A
102
}
330
1A
100
AcDbXrecord
280
     1
  1
DWGPROPS COOKIE
  2

  3

  4

  6

  7

  8
GriggioM
  9

300
=
301
=
302
=
303
=
304
=
305
=
306
=
307
=
308
=
309
=
 40
0.0022815509259259
 41
2451197.607007847
 42
2455131.673457639
  1

 90
        0
  0
DICTIONARY
  5
129
102
{ACAD_REACTORS
330
1A
102
}
330
1A
100
AcDbDictionary
281
     1
  3
UCNT
350
12A
  0
DICTIONARY
  5
126
102
{ACAD_REACTORS
330
1A
102
}
330
1A
100
AcDbDictionary
281
     1
  3
DEFAULT
350
127
  0
DICTIONARY
  5
128
102
{ACAD_REACTORS
330
1A
102
}
330
1A
100
AcDbDictionary
281
     1
  0
DICTIONARY
  5
12D
102
{ACAD_REACTORS
330
1A
102
}
330
1A
100
AcDbDictionary
281
     1
  3
TOP
350
12F
  3
X6f47
350
12E
  0
DICTIONARY
  5
130
102
{ACAD_REACTORS
330
1A
102
}
330
1A
100
AcDbDictionary
281
     1
  3
colors
350
131
  0
XRECORD
  5
167
102
{ACAD_REACTORS
330
166
102
}
330
166
100
AcDbXrecord
280
     1
290
     1
  0
XRECORD
  5
169
102
{ACAD_REACTORS
330
168
102
}
330
168
100
AcDbXrecord
280
     1
290
     1
  0
XRECORD
  5
16B
102
{ACAD_REACTORS
330
16A
102
}
330
16A
100
AcDbXrecord
280
     1
290
     1
  0
XRECORD
  5
16D
102
{ACAD_REACTORS
330
16C
102
}
330
16C
100
AcDbXrecord
280
     1
290
     1
  0
XRECORD
  5
16F
102
{ACAD_REACTORS
330
16E
102
}
330
16E
100
AcDbXrecord
280
     1
290
     1
  0
LAYOUT
  5
123
102
{ACAD_XDICTIONARY
360
182
102
}
102
{ACAD_REACTORS
330
120
102
}
330
120
100
AcDbPlotSettings
  1

  2
\\nas\db$\ImpCAD\Stampa\PC3\Infotec.pc3
  4

  6

 40
0.0
 41
0.0
 42
0.0
 43
0.0
 44
0.0
 45
0.0
 46
0.0
 47
0.0
 48
0.0
 49
0.0
140
0.0
141
0.0
142
1.0
143
1.0
 70
   688
 72
     0
 73
     0
 74
     5
  7

 75
    16
147
1.0
148
0.0
149
0.0
100
AcDbLayout
  1
Layout1
 70
     1
 71
     1
 10
0.0
 20
0.0
 11
12.0
 21
9.0
 12
0.0
 22
0.0
 32
0.0
 14
1.000000000000000E+20
 24
1.000000000000000E+20
 34
1.000000000000000E+20
 15
-1.000000000000000E+20
 25
-1.000000000000000E+20
 35
-1.000000000000000E+20
146
0.0
 13
0.0
 23
0.0
 33
0.0
 16
1.0
 26
0.0
 36
0.0
 17
0.0
 27
1.0
 37
0.0
 76
     0
330
7
  0
LAYOUT
  5
122
102
{ACAD_XDICTIONARY
360
180
102
}
102
{ACAD_REACTORS
330
120
102
}
330
120
100
AcDbPlotSettings
  1

  2
\\nas\db$\ImpCAD\Stampa\PC3\Infotec.pc3
  4

  6

 40
0.0
 41
0.0
 42
0.0
 43
0.0
 44
0.0
 45
0.0
 46
0.0
 47
0.0
 48
0.0
 49
0.0
140
0.0
141
0.0
142
1.0
143
1.0
 70
  1712
 72
     0
 73
     0
 74
     0
  7

 75
     0
147
1.0
148
0.0
149
0.0
100
AcDbLayout
  1
Model
 70
     1
 71
     0
 10
0.0
 20
0.0
 11
12.0
 21
9.0
 12
0.0
 22
0.0
 32
0.0
 14
0.0
 24
0.0
 34
0.0
 15
0.0
 25
0.0
 35
0.0
146
0.0
 13
0.0
 23
0.0
 33
0.0
 16
1.0
 26
0.0
 36
0.0
 17
0.0
 27
1.0
 37
0.0
 76
     0
330
2
331
CA
  0
MATERIAL
  5
D7
102
{ACAD_XDICTIONARY
360
D8
102
}
102
{ACAD_REACTORS
330
CE
102
}
330
CE
100
AcDbMaterial
  1
ByBlock
 72
     0
 43
0.0208333333333333
 43
0.0
 43
0.0
 43
0.0
 43
0.0
 43
0.0208333333333333
 43
0.0
 43
0.0
 43
0.0
 43
0.0
 43
1.0
 43
0.0
 43
0.0
 43
0.0
 43
0.0
 43
1.0
 77
     0
 47
0.0208333333333333
 47
0.0
 47
0.0
 47
0.0
 47
0.0
 47
0.0208333333333333
 47
0.0
 47
0.0
 47
0.0
 47
0.0
 47
1.0
 47
0.0
 47
0.0
 47
0.0
 47
0.0
 47
1.0
171
     0
 49
0.0208333333333333
 49
0.0
 49
0.0
 49
0.0
 49
0.0
 49
0.0208333333333333
 49
0.0
 49
0.0
 49
0.0
 49
0.0
 49
1.0
 49
0.0
 49
0.0
 49
0.0
 49
0.0
 49
1.0
175
     0
142
0.0208333333333333
142
0.0
142
0.0
142
0.0
142
0.0
142
0.0208333333333333
142
0.0
142
0.0
142
0.0
142
0.0
142
1.0
142
0.0
142
0.0
142
0.0
142
0.0
142
1.0
179
     0
144
0.0208333333333333
144
0.0
144
0.0
144
0.0
144
0.0
144
0.0208333333333333
144
0.0
144
0.0
144
0.0
144
0.0
144
1.0
144
0.0
144
0.0
144
0.0
144
0.0
144
1.0
147
0.0208333333333333
147
0.0
147
0.0
147
0.0
147
0.0
147
0.0208333333333333
147
0.0
147
0.0
147
0.0
147
0.0
147
1.0
147
0.0
147
0.0
147
0.0
147
0.0
147
1.0
  0
MATERIAL
  5
CF
102
{ACAD_XDICTIONARY
360
D0
102
}
102
{ACAD_REACTORS
330
CE
102
}
330
CE
100
AcDbMaterial
  1
ByLayer
 72
     0
 43
0.0208333333333333
 43
0.0
 43
0.0
 43
0.0
 43
0.0
 43
0.0208333333333333
 43
0.0
 43
0.0
 43
0.0
 43
0.0
 43
1.0
 43
0.0
 43
0.0
 43
0.0
 43
0.0
 43
1.0
 77
     0
 47
0.0208333333333333
 47
0.0
 47
0.0
 47
0.0
 47
0.0
 47
0.0208333333333333
 47
0.0
 47
0.0
 47
0.0
 47
0.0
 47
1.0
 47
0.0
 47
0.0
 47
0.0
 47
0.0
 47
1.0
171
     0
 49
0.0208333333333333
 49
0.0
 49
0.0
 49
0.0
 49
0.0
 49
0.0208333333333333
 49
0.0
 49
0.0
 49
0.0
 49
0.0
 49
1.0
 49
0.0
 49
0.0
 49
0.0
 49
0.0
 49
1.0
175
     0
142
0.0208333333333333
142
0.0
142
0.0
142
0.0
142
0.0
142
0.0208333333333333
142
0.0
142
0.0
142
0.0
142
0.0
142
1.0
142
0.0
142
0.0
142
0.0
142
0.0
142
1.0
179
     0
144
0.0208333333333333
144
0.0
144
0.0
144
0.0
144
0.0
144
0.0208333333333333
144
0.0
144
0.0
144
0.0
144
0.0
144
1.0
144
0.0
144
0.0
144
0.0
144
0.0
144
1.0
147
0.0208333333333333
147
0.0
147
0.0
147
0.0
147
0.0
147
0.0208333333333333
147
0.0
147
0.0
147
0.0
147
0.0
147
1.0
147
0.0
147
0.0
147
0.0
147
0.0
147
1.0
  0
MATERIAL
  5
DF
102
{ACAD_XDICTIONARY
360
E0
102
}
102
{ACAD_REACTORS
330
CE
102
}
330
CE
100
AcDbMaterial
  1
Global
 72
     0
 43
0.0208333333333333
 43
0.0
 43
0.0
 43
0.0
 43
0.0
 43
0.0208333333333333
 43
0.0
 43
0.0
 43
0.0
 43
0.0
 43
1.0
 43
0.0
 43
0.0
 43
0.0
 43
0.0
 43
1.0
 77
     0
 47
0.0208333333333333
 47
0.0
 47
0.0
 47
0.0
 47
0.0
 47
0.0208333333333333
 47
0.0
 47
0.0
 47
0.0
 47
0.0
 47
1.0
 47
0.0
 47
0.0
 47
0.0
 47
0.0
 47
1.0
171
     0
 49
0.0208333333333333
 49
0.0
 49
0.0
 49
0.0
 49
0.0
 49
0.0208333333333333
 49
0.0
 49
0.0
 49
0.0
 49
0.0
 49
1.0
 49
0.0
 49
0.0
 49
0.0
 49
0.0
 49
1.0
175
     0
142
0.0208333333333333
142
0.0
142
0.0
142
0.0
142
0.0
142
0.0208333333333333
142
0.0
142
0.0
142
0.0
142
0.0
142
1.0
142
0.0
142
0.0
142
0.0
142
0.0
142
1.0
179
     0
144
0.0208333333333333
144
0.0
144
0.0
144
0.0
144
0.0
144
0.0208333333333333
144
0.0
144
0.0
144
0.0
144
0.0
144
1.0
144
0.0
144
0.0
144
0.0
144
0.0
144
1.0
147
0.0208333333333333
147
0.0
147
0.0
147
0.0
147
0.0
147
0.0208333333333333
147
0.0
147
0.0
147
0.0
147
0.0
147
1.0
147
0.0
147
0.0
147
0.0
147
0.0
147
1.0
  0
MLEADERSTYLE
  5
11E
102
{ACAD_REACTORS
330
11D
102
}
330
11D
100
AcDbMLeaderStyle
170
     2
171
     1
172
     0
 90
        2
 40
0.0
 41
0.0
173
     1
 91
-1056964608
340
E
 92
       -2
290
     1
 42
0.09
291
     1
 43
0.36
  3
Standard
 44
0.18
300

342
C
174
     1
178
     6
175
     1
176
     0
 93
-1056964608
 45
0.18
292
     0
297
     0
 46
0.18
 94
-1056964608
 47
1.0
 49
1.0
140
1.0
293
     1
141
0.0
294
     1
177
     0
142
1.0
295
     0
296
     0
143
0.125
1001
ACAD_MLEADERVER
1070
     2
  0
MLINESTYLE
  5
1B
102
{ACAD_REACTORS
330
19
102
}
330
19
100
AcDbMlineStyle
  2
STANDARD
 70
     0
  3

 62
   256
 51
90.0
 52
90.0
 71
     2
 49
0.5
 62
   256
  6
BYLAYER
 49
-0.5
 62
   256
  6
BYLAYER
  0
ACDBPLACEHOLDER
  5
CD
102
{ACAD_REACTORS
330
CC
102
}
330
CC
  0
SCALE
  5
FC
102
{ACAD_REACTORS
330
FB
102
}
330
FB
100
AcDbScale
 70
     0
300
1:1
140
1.0
141
1.0
290
     1
  0
SCALE
  5
FD
102
{ACAD_REACTORS
330
FB
102
}
330
FB
100
AcDbScale
 70
     0
300
1:2
140
1.0
141
2.0
290
     0
  0
SCALE
  5
FE
102
{ACAD_REACTORS
330
FB
102
}
330
FB
100
AcDbScale
 70
     0
300
1:4
140
1.0
141
4.0
290
     0
  0
SCALE
  5
FF
102
{ACAD_REACTORS
330
FB
102
}
330
FB
100
AcDbScale
 70
     0
300
1:5
140
1.0
141
5.0
290
     0
  0
SCALE
  5
100
102
{ACAD_REACTORS
330
FB
102
}
330
FB
100
AcDbScale
 70
     0
300
1:8
140
1.0
141
8.0
290
     0
  0
SCALE
  5
101
102
{ACAD_REACTORS
330
FB
102
}
330
FB
100
AcDbScale
 70
     0
300
1:10
140
1.0
141
10.0
290
     0
  0
SCALE
  5
102
102
{ACAD_REACTORS
330
FB
102
}
330
FB
100
AcDbScale
 70
     0
300
1:16
140
1.0
141
16.0
290
     0
  0
SCALE
  5
103
102
{ACAD_REACTORS
330
FB
102
}
330
FB
100
AcDbScale
 70
     0
300
1:20
140
1.0
141
20.0
290
     0
  0
SCALE
  5
104
102
{ACAD_REACTORS
330
FB
102
}
330
FB
100
AcDbScale
 70
     0
300
1:30
140
1.0
141
30.0
290
     0
  0
SCALE
  5
105
102
{ACAD_REACTORS
330
FB
102
}
330
FB
100
AcDbScale
 70
     0
300
1:40
140
1.0
141
40.0
290
     0
  0
SCALE
  5
106
102
{ACAD_REACTORS
330
FB
102
}
330
FB
100
AcDbScale
 70
     0
300
1:50
140
1.0
141
50.0
290
     0
  0
SCALE
  5
107
102
{ACAD_REACTORS
330
FB
102
}
330
FB
100
AcDbScale
 70
     0
300
1:100
140
1.0
141
100.0
290
     0
  0
SCALE
  5
108
102
{ACAD_REACTORS
330
FB
102
}
330
FB
100
AcDbScale
 70
     0
300
2:1
140
2.0
141
1.0
290
     0
  0
SCALE
  5
109
102
{ACAD_REACTORS
330
FB
102
}
330
FB
100
AcDbScale
 70
     0
300
4:1
140
4.0
141
1.0
290
     0
  0
SCALE
  5
10A
102
{ACAD_REACTORS
330
FB
102
}
330
FB
100
AcDbScale
 70
     0
300
8:1
140
8.0
141
1.0
290
     0
  0
SCALE
  5
10B
102
{ACAD_REACTORS
330
FB
102
}
330
FB
100
AcDbScale
 70
     0
300
10:1
140
10.0
141
1.0
290
     0
  0
SCALE
  5
10C
102
{ACAD_REACTORS
330
FB
102
}
330
FB
100
AcDbScale
 70
     0
300
100:1
140
100.0
141
1.0
290
     0
  0
SCALE
  5
10D
102
{ACAD_REACTORS
330
FB
102
}
330
FB
100
AcDbScale
 70
     0
300
1/128" = 1'-0"
140
0.0078125
141
12.0
290
     0
  0
SCALE
  5
10E
102
{ACAD_REACTORS
330
FB
102
}
330
FB
100
AcDbScale
 70
     0
300
1/64" = 1'-0"
140
0.015625
141
12.0
290
     0
  0
SCALE
  5
10F
102
{ACAD_REACTORS
330
FB
102
}
330
FB
100
AcDbScale
 70
     0
300
1/32" = 1'-0"
140
0.03125
141
12.0
290
     0
  0
SCALE
  5
110
102
{ACAD_REACTORS
330
FB
102
}
330
FB
100
AcDbScale
 70
     0
300
1/16" = 1'-0"
140
0.0625
141
12.0
290
     0
  0
SCALE
  5
111
102
{ACAD_REACTORS
330
FB
102
}
330
FB
100
AcDbScale
 70
     0
300
3/32" = 1'-0"
140
0.09375
141
12.0
290
     0
  0
SCALE
  5
112
102
{ACAD_REACTORS
330
FB
102
}
330
FB
100
AcDbScale
 70
     0
300
1/8" = 1'-0"
140
0.125
141
12.0
290
     0
  0
SCALE
  5
113
102
{ACAD_REACTORS
330
FB
102
}
330
FB
100
AcDbScale
 70
     0
300
3/16" = 1'-0"
140
0.1875
141
12.0
290
     0
  0
SCALE
  5
114
102
{ACAD_REACTORS
330
FB
102
}
330
FB
100
AcDbScale
 70
     0
300
1/4" = 1'-0"
140
0.25
141
12.0
290
     0
  0
SCALE
  5
115
102
{ACAD_REACTORS
330
FB
102
}
330
FB
100
AcDbScale
 70
     0
300
3/8" = 1'-0"
140
0.375
141
12.0
290
     0
  0
SCALE
  5
116
102
{ACAD_REACTORS
330
FB
102
}
330
FB
100
AcDbScale
 70
     0
300
1/2" = 1'-0"
140
0.5
141
12.0
290
     0
  0
SCALE
  5
117
102
{ACAD_REACTORS
330
FB
102
}
330
FB
100
AcDbScale
 70
     0
300
3/4" = 1'-0"
140
0.75
141
12.0
290
     0
  0
SCALE
  5
118
102
{ACAD_REACTORS
330
FB
102
}
330
FB
100
AcDbScale
 70
     0
300
1" = 1'-0"
140
1.0
141
12.0
290
     0
  0
SCALE
  5
119
102
{ACAD_REACTORS
330
FB
102
}
330
FB
100
AcDbScale
 70
     0
300
1-1/2" = 1'-0"
140
1.5
141
12.0
290
     0
  0
SCALE
  5
11A
102
{ACAD_REACTORS
330
FB
102
}
330
FB
100
AcDbScale
 70
     0
300
3" = 1'-0"
140
3.0
141
12.0
290
     0
  0
SCALE
  5
11B
102
{ACAD_REACTORS
330
FB
102
}
330
FB
100
AcDbScale
 70
     0
300
6" = 1'-0"
140
6.0
141
12.0
290
     0
  0
SCALE
  5
11C
102
{ACAD_REACTORS
330
FB
102
}
330
FB
100
AcDbScale
 70
     0
300
1'-0" = 1'-0"
140
12.0
141
12.0
290
     0
  0
TABLESTYLE
  5
FA
102
{ACAD_XDICTIONARY
360
178
102
}
102
{ACAD_REACTORS
330
F9
102
}
330
F9
100
AcDbTableStyle
  3
Standard
 70
     0
 71
     0
 40
0.06
 41
0.06
280
     0
281
     0
  7
STANDARD
140
0.18
170
     2
 62
     0
 63
     7
283
     0
274
    -2
284
     1
 64
     0
275
    -2
285
     1
 65
     0
276
    -2
286
     1
 66
     0
277
    -2
287
     1
 67
     0
278
    -2
288
     1
 68
     0
279
    -2
289
     1
 69
     0
  7
STANDARD
140
0.25
170
     5
 62
     0
 63
     7
283
     0
274
    -2
284
     1
 64
     0
275
    -2
285
     1
 65
     0
276
    -2
286
     1
 66
     0
277
    -2
287
     1
 67
     0
278
    -2
288
     1
 68
     0
279
    -2
289
     1
 69
     0
  7
STANDARD
140
0.18
170
     5
 62
     0
 63
     7
283
     0
274
    -2
284
     1
 64
     0
275
    -2
285
     1
 65
     0
276
    -2
286
     1
 66
     0
277
    -2
287
     1
 67
     0
278
    -2
288
     1
 68
     0
279
    -2
289
     1
 69
     0
  0
VISUALSTYLE
  5
ED
102
{ACAD_REACTORS
330
E7
102
}
330
E7
100
AcDbVisualStyle
  2
2dWireframe
 70
     4
 71
     0
 72
     2
 73
     0
 90
        0
 40
-0.6
 41
-30.0
 62
     5
 63
     7
 74
     1
 91
        4
 64
     7
 65
   257
 75
     1
175
     1
 42
1.0
 92
        0
 66
   257
 43
1.0
 76
     1
 77
     6
 78
     2
 67
     7
 79
     5
170
     0
171
     0
290
     0
174
     0
 93
        1
 44
0.0
173
     0
291
     0
 45
0.0
1001
ACAD
1000
AcDbSavedByObjectVersion
1070
     0
  0
VISUALSTYLE
  5
EF
102
{ACAD_REACTORS
330
E7
102
}
330
E7
100
AcDbVisualStyle
  2
3D Hidden
 70
     6
 71
     1
 72
     2
 73
     2
 90
        0
 40
-0.6
 41
-30.0
 62
     5
 63
     7
 74
     2
 91
        2
 64
     7
 65
   257
 75
     2
175
     1
 42
40.0
 92
        0
 66
   257
 43
1.0
 76
     1
 77
     6
 78
     2
 67
     7
 79
     3
170
     0
171
     0
290
     0
174
     0
 93
        1
 44
0.0
173
     0
291
     0
 45
0.0
1001
ACAD
1000
AcDbSavedByObjectVersion
1070
     0
  0
VISUALSTYLE
  5
EE
102
{ACAD_REACTORS
330
E7
102
}
330
E7
100
AcDbVisualStyle
  2
3dWireframe
 70
     5
 71
     0
 72
     2
 73
     0
 90
        0
 40
-0.6
 41
-30.0
 62
     5
 63
     7
 74
     1
 91
        4
 64
     7
 65
   257
 75
     1
175
     1
 42
1.0
 92
        0
 66
   257
 43
1.0
 76
     1
 77
     6
 78
     2
 67
     7
 79
     5
170
     0
171
     0
290
     0
174
     0
 93
        1
 44
0.0
173
     0
291
     0
 45
0.0
1001
ACAD
1000
AcDbSavedByObjectVersion
1070
     0
  0
VISUALSTYLE
  5
EC
102
{ACAD_REACTORS
330
E7
102
}
330
E7
100
AcDbVisualStyle
  2
Basic
 70
     7
 71
     1
 72
     0
 73
     1
 90
        0
 40
-0.6
 41
-30.0
 62
     5
 63
     7
 74
     0
 91
        4
 64
     7
 65
   257
 75
     1
175
     1
 42
1.0
 92
        8
 66
     7
 43
1.0
 76
     1
 77
     6
 78
     2
 67
     7
 79
     5
170
     0
171
     0
290
     0
174
     0
 93
        1
 44
0.0
173
     0
291
     1
 45
0.0
1001
ACAD
1000
AcDbSavedByObjectVersion
1070
     0
  0
VISUALSTYLE
  5
F3
102
{ACAD_REACTORS
330
E7
102
}
330
E7
100
AcDbVisualStyle
  2
Brighten
 70
    12
 71
     2
 72
     2
 73
     0
 90
        0
 40
-0.6
 41
-30.0
 62
     5
 63
     7
 74
     1
 91
        4
 64
     7
 65
   257
 75
     1
175
     1
 42
1.0
 92
        8
 66
     7
 43
1.0
 76
     1
 77
     6
 78
     2
 67
     7
 79
     5
170
     0
171
     0
290
     0
174
     0
 93
        1
 44
50.0
173
     0
291
     1
 45
0.0
1001
ACAD
1000
AcDbSavedByObjectVersion
1070
     0
  0
VISUALSTYLE
  5
F7
102
{ACAD_REACTORS
330
E7
102
}
330
E7
100
AcDbVisualStyle
  2
ColorChange
 70
    16
 71
     2
 72
     2
 73
     3
 90
        0
 40
-0.6
 41
-30.0
 62
     5
 63
     8
 74
     1
 91
        4
 64
     7
 65
   257
 75
     1
175
     1
 42
1.0
 92
        8
 66
     8
 43
1.0
 76
     1
 77
     6
 78
     2
 67
     7
 79
     5
170
     0
171
     0
290
     0
174
     0
 93
        1
 44
0.0
173
     0
291
     1
 45
0.0
1001
ACAD
1000
AcDbSavedByObjectVersion
1070
     0
  0
VISUALSTYLE
  5
F0
102
{ACAD_REACTORS
330
E7
102
}
330
E7
100
AcDbVisualStyle
  2
Conceptual
 70
     9
 71
     3
 72
     2
 73
     0
 90
        0
 40
-0.6
 41
-30.0
 62
     5
 63
     7
 74
     2
 91
        2
 64
     7
 65
   257
 75
     1
175
     1
 42
40.0
 92
        8
 66
     7
 43
1.0
 76
     1
 77
     6
 78
     2
 67
     7
 79
     3
170
     0
171
     0
290
     0
174
     0
 93
        1
 44
0.0
173
     0
291
     0
 45
0.0
1001
ACAD
1000
AcDbSavedByObjectVersion
1070
     0
  0
VISUALSTYLE
  5
F2
102
{ACAD_REACTORS
330
E7
102
}
330
E7
100
AcDbVisualStyle
  2
Dim
 70
    11
 71
     2
 72
     2
 73
     0
 90
        0
 40
-0.6
 41
-30.0
 62
     5
 63
     7
 74
     1
 91
        4
 64
     7
 65
   257
 75
     1
175
     1
 42
1.0
 92
        8
 66
     7
 43
1.0
 76
     1
 77
     6
 78
     2
 67
     7
 79
     5
170
     0
171
     0
290
     0
174
     0
 93
        1
 44
-50.0
173
     0
291
     1
 45
0.0
1001
ACAD
1000
AcDbSavedByObjectVersion
1070
     0
  0
VISUALSTYLE
  5
F6
102
{ACAD_REACTORS
330
E7
102
}
330
E7
100
AcDbVisualStyle
  2
Facepattern
 70
    15
 71
     2
 72
     2
 73
     0
 90
        0
 40
-0.6
 41
-30.0
 62
     5
 63
     7
 74
     1
 91
        4
 64
     7
 65
   257
 75
     1
175
     1
 42
1.0
 92
        8
 66
     7
 43
1.0
 76
     1
 77
     6
 78
     2
 67
     7
 79
     5
170
     0
171
     0
290
     0
174
     0
 93
        1
 44
0.0
173
     0
291
     1
 45
0.0
1001
ACAD
1000
AcDbSavedByObjectVersion
1070
     0
  0
VISUALSTYLE
  5
E8
102
{ACAD_REACTORS
330
E7
102
}
330
E7
100
AcDbVisualStyle
  2
Flat
 70
     0
 71
     2
 72
     1
 73
     1
 90
        2
 40
-0.6
 41
30.0
 62
     5
 63
     7
 74
     0
 91
        4
 64
     7
 65
   257
 75
     1
175
     1
 42
1.0
 92
        8
 66
     7
 43
1.0
 76
     1
 77
     6
 78
     2
 67
     7
 79
     5
170
     0
171
     0
290
     0
174
     0
 93
       13
 44
0.0
173
     0
291
     1
 45
0.0
1001
ACAD
1000
AcDbSavedByObjectVersion
1070
     0
  0
VISUALSTYLE
  5
E9
102
{ACAD_REACTORS
330
E7
102
}
330
E7
100
AcDbVisualStyle
  2
FlatWithEdges
 70
     1
 71
     2
 72
     1
 73
     1
 90
        2
 40
-0.6
 41
30.0
 62
     5
 63
     7
 74
     1
 91
        4
 64
     7
 65
   257
 75
     1
175
     1
 42
1.0
 92
        0
 66
   257
 43
1.0
 76
     1
 77
     6
 78
     2
 67
     7
 79
     5
170
     0
171
     0
290
     0
174
     0
 93
       13
 44
0.0
173
     0
291
     1
 45
0.0
1001
ACAD
1000
AcDbSavedByObjectVersion
1070
     0
  0
VISUALSTYLE
  5
EA
102
{ACAD_REACTORS
330
E7
102
}
330
E7
100
AcDbVisualStyle
  2
Gouraud
 70
     2
 71
     2
 72
     2
 73
     1
 90
        2
 40
-0.6
 41
30.0
 62
     5
 63
     7
 74
     0
 91
        4
 64
     7
 65
   257
 75
     1
175
     1
 42
1.0
 92
        0
 66
     7
 43
1.0
 76
     1
 77
     6
 78
     2
 67
     7
 79
     5
170
     0
171
     0
290
     0
174
     0
 93
       13
 44
0.0
173
     0
291
     1
 45
0.0
1001
ACAD
1000
AcDbSavedByObjectVersion
1070
     0
  0
VISUALSTYLE
  5
EB
102
{ACAD_REACTORS
330
E7
102
}
330
E7
100
AcDbVisualStyle
  2
GouraudWithEdges
 70
     3
 71
     2
 72
     2
 73
     1
 90
        2
 40
-0.6
 41
30.0
 62
     5
 63
     7
 74
     1
 91
        4
 64
     7
 65
   257
 75
     1
175
     1
 42
1.0
 92
        0
 66
   257
 43
1.0
 76
     1
 77
     6
 78
     2
 67
     7
 79
     5
170
     0
171
     0
290
     0
174
     0
 93
       13
 44
0.0
173
     0
291
     1
 45
0.0
1001
ACAD
1000
AcDbSavedByObjectVersion
1070
     0
  0
VISUALSTYLE
  5
F5
102
{ACAD_REACTORS
330
E7
102
}
330
E7
100
AcDbVisualStyle
  2
Linepattern
 70
    14
 71
     2
 72
     2
 73
     0
 90
        0
 40
-0.6
 41
-30.0
 62
     5
 63
     7
 74
     1
 91
        4
 64
     7
 65
   257
 75
     7
175
     7
 42
1.0
 92
        8
 66
     7
 43
1.0
 76
     1
 77
     6
 78
     2
 67
     7
 79
     5
170
     0
171
     0
290
     0
174
     0
 93
        1
 44
0.0
173
     0
291
     1
 45
0.0
1001
ACAD
1000
AcDbSavedByObjectVersion
1070
     0
  0
VISUALSTYLE
  5
F1
102
{ACAD_REACTORS
330
E7
102
}
330
E7
100
AcDbVisualStyle
  2
Realistic
 70
     8
 71
     2
 72
     2
 73
     0
 90
        0
 40
-0.6
 41
-30.0
 62
     5
 63
     7
 74
     1
 91
        0
 64
     7
 65
   257
 75
     1
175
     1
 42
1.0
 92
        8
 66
     8
 43
1.0
 76
     1
 77
     6
 78
     2
 67
     7
 79
     5
170
     0
171
     0
290
     0
174
     0
 93
       13
 44
0.0
173
     0
291
     0
 45
0.0
1001
ACAD
1000
AcDbSavedByObjectVersion
1070
     0
  0
VISUALSTYLE
  5
F4
102
{ACAD_REACTORS
330
E7
102
}
330
E7
100
AcDbVisualStyle
  2
Thicken
 70
    13
 71
     2
 72
     2
 73
     0
 90
        0
 40
-0.6
 41
-30.0
 62
     5
 63
     7
 74
     1
 91
        4
 64
     7
 65
   257
 75
     1
175
     1
 42
1.0
 92
       12
 66
     7
 43
1.0
 76
     1
 77
     6
 78
     2
 67
     7
 79
     5
170
     0
171
     0
290
     0
174
     0
 93
        1
 44
0.0
173
     0
291
     1
 45
0.0
1001
ACAD
1000
AcDbSavedByObjectVersion
1070
     0
  0
DICTIONARYVAR
  5
174
102
{ACAD_REACTORS
330
170
102
}
330
170
100
DictionaryVariables
280
     0
  1
1:1
  0
DICTIONARYVAR
  5
172
102
{ACAD_REACTORS
330
170
102
}
330
170
100
DictionaryVariables
280
     0
  1
STANDARD
  0
DICTIONARYVAR
  5
171
102
{ACAD_REACTORS
330
170
102
}
330
170
100
DictionaryVariables
280
     0
  1
STANDARD
  0
DICTIONARYVAR
  5
177
102
{ACAD_REACTORS
330
170
102
}
330
170
100
DictionaryVariables
280
     0
  1
1
  0
DICTIONARYVAR
  5
173
102
{ACAD_REACTORS
330
170
102
}
330
170
100
DictionaryVariables
280
     0
  1
0
  0
DICTIONARYVAR
  5
176
102
{ACAD_REACTORS
330
170
102
}
330
170
100
DictionaryVariables
280
     0
  1
0
  0
DICTIONARYVAR
  5
175
102
{ACAD_REACTORS
330
170
102
}
330
170
100
DictionaryVariables
280
     0
  1
127
  0
XRECORD
  5
12A
102
{ACAD_REACTORS
330
129
102
}
330
129
100
AcDbXrecord
280
     1
 91
        1
  0
ACDBQSCATEGORY
  5
127
102
{ACAD_REACTORS
330
126
102
}
330
126
100
AcQsCategory
 70
     1
300
DEFAULT
290
     1
291
     1
 90
        0
  0
XRECORD
  5
12F
102
{ACAD_REACTORS
330
12D
102
}
330
12D
100
AcDbXrecord
280
     1
  9
X6f47
  0
XRECORD
  5
12E
102
{ACAD_REACTORS
330
12D
102
}
330
12D
100
AcDbXrecord
280
     1
  2
TOP
  3
P-0000
280
     1
310
6465736372697A696F6E6500544F5000444154410032362F31302F303900554D004EB00052455600300000
 10
0.0
 20
0.0
 30
0.0
  0
XRECORD
  5
131
102
{ACAD_REACTORS
330
130
102
}
330
130
100
AcDbXrecord
280
     1
 90
      202
 91
      144
  0
DICTIONARY
  5
182
330
123
100
AcDbDictionary
280
     1
281
     1
  3
ACAD_XREC_ROUNDTRIP
360
183
  0
DICTIONARY
  5
180
330
122
100
AcDbDictionary
280
     1
281
     1
  3
ACAD_XREC_ROUNDTRIP
360
181
  0
DICTIONARY
  5
D8
330
D7
100
AcDbDictionary
280
     1
281
     1
  3
ACAD_XREC_ROUNDTRIP
360
17D
  3
BUMPTILE
360
DA
  3
DIFFUSETILE
360
D9
  3
OPACITYTILE
360
DD
  3
REFLECTIONTILE
360
DC
  3
REFRACTIONTILE
360
DE
  3
SPECULARTILE
360
DB
  0
DICTIONARY
  5
D0
330
CF
100
AcDbDictionary
280
     1
281
     1
  3
ACAD_XREC_ROUNDTRIP
360
17C
  3
BUMPTILE
360
D2
  3
DIFFUSETILE
360
D1
  3
OPACITYTILE
360
D5
  3
REFLECTIONTILE
360
D4
  3
REFRACTIONTILE
360
D6
  3
SPECULARTILE
360
D3
  0
DICTIONARY
  5
E0
330
DF
100
AcDbDictionary
280
     1
281
     1
  3
ACAD_XREC_ROUNDTRIP
360
17E
  3
BUMPTILE
360
E2
  3
DIFFUSETILE
360
E1
  3
OPACITYTILE
360
E5
  3
REFLECTIONTILE
360
E4
  3
REFRACTIONTILE
360
E6
  3
SPECULARTILE
360
E3
  0
DICTIONARY
  5
178
330
FA
100
AcDbDictionary
280
     1
281
     1
  3
ACAD_ROUNDTRIP_2008_TABLESTYLE_CELLSTYLEMAP
360
179
  3
ACAD_XREC_ROUNDTRIP
360
17F
  0
XRECORD
  5
183
102
{ACAD_REACTORS
330
182
102
}
330
182
100
AcDbXrecord
280
     1
102
SHADEPLOT
 70
     0
102
SHADEPLOTRESLEVEL
 70
     2
102
SHADEPLOTCUSTOMDPI
 70
   300
  0
XRECORD
  5
181
102
{ACAD_REACTORS
330
180
102
}
330
180
100
AcDbXrecord
280
     1
102
SHADEPLOT
 70
     0
102
SHADEPLOTRESLEVEL
 70
     2
102
SHADEPLOTCUSTOMDPI
 70
   300
  0
XRECORD
  5
17D
102
{ACAD_REACTORS
330
D8
102
}
330
D8
100
AcDbXrecord
280
     1
102
MATERIAL
148
0.0
149
0.0
149
0.0
 93
        0
 94
      127
282
     0
 72
     0
 77
     0
171
     0
175
     0
179
     0
273
     0
  0
XRECORD
  5
DA
102
{ACAD_REACTORS
330
D8
102
}
330
D8
100
AcDbXrecord
280
     1
270
     1
271
     1
  0
XRECORD
  5
D9
102
{ACAD_REACTORS
330
D8
102
}
330
D8
100
AcDbXrecord
280
     1
270
     1
271
     1
  0
XRECORD
  5
DD
102
{ACAD_REACTORS
330
D8
102
}
330
D8
100
AcDbXrecord
280
     1
270
     1
271
     1
  0
XRECORD
  5
DC
102
{ACAD_REACTORS
330
D8
102
}
330
D8
100
AcDbXrecord
280
     1
270
     1
271
     1
  0
XRECORD
  5
DE
102
{ACAD_REACTORS
330
D8
102
}
330
D8
100
AcDbXrecord
280
     1
270
     1
271
     1
  0
XRECORD
  5
DB
102
{ACAD_REACTORS
330
D8
102
}
330
D8
100
AcDbXrecord
280
     1
270
     1
271
     1
  0
XRECORD
  5
17C
102
{ACAD_REACTORS
330
D0
102
}
330
D0
100
AcDbXrecord
280
     1
102
MATERIAL
148
0.0
149
0.0
149
0.0
 93
        0
 94
      127
282
     0
 72
     0
 77
     0
171
     0
175
     0
179
     0
273
     0
  0
XRECORD
  5
D2
102
{ACAD_REACTORS
330
D0
102
}
330
D0
100
AcDbXrecord
280
     1
270
     1
271
     1
  0
XRECORD
  5
D1
102
{ACAD_REACTORS
330
D0
102
}
330
D0
100
AcDbXrecord
280
     1
270
     1
271
     1
  0
XRECORD
  5
D5
102
{ACAD_REACTORS
330
D0
102
}
330
D0
100
AcDbXrecord
280
     1
270
     1
271
     1
  0
XRECORD
  5
D4
102
{ACAD_REACTORS
330
D0
102
}
330
D0
100
AcDbXrecord
280
     1
270
     1
271
     1
  0
XRECORD
  5
D6
102
{ACAD_REACTORS
330
D0
102
}
330
D0
100
AcDbXrecord
280
     1
270
     1
271
     1
  0
XRECORD
  5
D3
102
{ACAD_REACTORS
330
D0
102
}
330
D0
100
AcDbXrecord
280
     1
270
     1
271
     1
  0
XRECORD
  5
17E
102
{ACAD_REACTORS
330
E0
102
}
330
E0
100
AcDbXrecord
280
     1
102
MATERIAL
148
0.0
149
0.0
149
0.0
 93
        0
 94
      127
282
     0
 72
     0
 77
     0
171
     0
175
     0
179
     0
273
     0
  0
XRECORD
  5
E2
102
{ACAD_REACTORS
330
E0
102
}
330
E0
100
AcDbXrecord
280
     1
270
     1
271
     1
  0
XRECORD
  5
E1
102
{ACAD_REACTORS
330
E0
102
}
330
E0
100
AcDbXrecord
280
     1
270
     1
271
     1
  0
XRECORD
  5
E5
102
{ACAD_REACTORS
330
E0
102
}
330
E0
100
AcDbXrecord
280
     1
270
     1
271
     1
  0
XRECORD
  5
E4
102
{ACAD_REACTORS
330
E0
102
}
330
E0
100
AcDbXrecord
280
     1
270
     1
271
     1
  0
XRECORD
  5
E6
102
{ACAD_REACTORS
330
E0
102
}
330
E0
100
AcDbXrecord
280
     1
270
     1
271
     1
  0
XRECORD
  5
E3
102
{ACAD_REACTORS
330
E0
102
}
330
E0
100
AcDbXrecord
280
     1
270
     1
271
     1
  0
CELLSTYLEMAP
  5
179
102
{ACAD_REACTORS
330
178
102
}
330
178
100
AcDbCellStyleMap
 90
        3
300
CELLSTYLE
  1
TABLEFORMAT_BEGIN
 90
        5
170
     1
 91
        0
 92
    32768
 62
   257
 93
        1
300
CONTENTFORMAT
  1
CONTENTFORMAT_BEGIN
 90
        0
 91
        0
 92
      512
 93
        0
300

 40
0.0
140
1.0
 94
        5
 62
     0
340
C
144
0.25
309
CONTENTFORMAT_END
171
     0
 94
        0
309
TABLEFORMAT_END
  1
CELLSTYLE_BEGIN
 90
        1
 91
        1
300
_TITLE
309
CELLSTYLE_END
300
CELLSTYLE
  1
TABLEFORMAT_BEGIN
 90
        5
170
     1
 91
        0
 92
        0
 62
   257
 93
        1
300
CONTENTFORMAT
  1
CONTENTFORMAT_BEGIN
 90
        0
 91
        0
 92
      512
 93
        0
300

 40
0.0
140
1.0
 94
        5
 62
     0
340
C
144
0.18
309
CONTENTFORMAT_END
171
     0
 94
        0
309
TABLEFORMAT_END
  1
CELLSTYLE_BEGIN
 90
        2
 91
        1
300
_HEADER
309
CELLSTYLE_END
300
CELLSTYLE
  1
TABLEFORMAT_BEGIN
 90
        5
170
     1
 91
        0
 92
        0
 62
   257
 93
        1
300
CONTENTFORMAT
  1
CONTENTFORMAT_BEGIN
 90
        0
 91
        0
 92
      512
 93
        0
300

 40
0.0
140
1.0
 94
        2
 62
     0
340
C
144
0.18
309
CONTENTFORMAT_END
171
     0
 94
        0
309
TABLEFORMAT_END
  1
CELLSTYLE_BEGIN
 90
        3
 91
        2
300
_DATA
309
CELLSTYLE_END
  0
XRECORD
  5
17F
102
{ACAD_REACTORS
330
178
102
}
330
178
100
AcDbXrecord
280
     1
102
ACAD_ROUNDTRIP_PRE2007_TABLESTYLE
 90
      512
 91
        0
  1

 92
      512
 93
        0
  2

 94
      512
 95
        0
  3

  0
ENDSEC
  0
EOF
