  0
SECTION
  2
HEADER
  9
$ACADVER
  1
AC1009
  9
$INSBASE
 10
0
 20
0
 30
0
  9
$EXTMIN
 10
0
 20
0
  9
$EXTMAX
 10
297
 20
210
  9
$LIMMIN
 10
0
 20
0
  9
$LIMMAX
 10
297
 20
210
  9
$LTSCALE
 40
1
  0
ENDSEC
  0
SECTION
  2
TABLES
  0
TABLE
  2
LTYPE
 70
     9
  0
LTYPE
  2
CONTINUOUS
 70
    64
  3
実線
 72
    65
 73
     0
 40
0.0
  0
LTYPE
  2
DASHED1
 70
    64
  3
--  --  --  --  --  --  --  --  
 72
    65
 73
     2
 40
2.5
 49
1.25
 49
-1.25
  0
LTYPE
  2
DASHED2
 70
    64
  3
----    ----    ----    ----    
 72
    65
 73
     2
 40
5.0
 49
2.5
 49
-2.5
  0
LTYPE
  2
DASHED3
 70
    64
  3
------  ------  ------  ------  
 72
    65
 73
     2
 40
5.0
 49
3.75
 49
-1.25
  0
LTYPE
  2
CENTER1
 70
    64
  3
----- - ----- - ----- - ----- - 
 72
    65
 73
     4
 40
10.0
 49
6.25
 49
-1.25
 49
1.25
 49
-1.25
  0
LTYPE
  2
CENTER2
 70
    64
  3
----------  --  ----------  --  
 72
    65
 73
     4
 40
20.0
 49
12.5
 49
-2.5
 49
2.5
 49
-2.5
  0
LTYPE
  2
PHANTOM1
 70
    64
  3
--- - - --- - - --- - - --- - - 
 72
    65
 73
     6
 40
10.0
 49
3.25
 49
-1.25
 49
1.25
 49
-1.25
 49
1.25
 49
-1.25
  0
LTYPE
  2
PHANTOM2
 70
    64
  3
--------  -  -  --------  -  -  
 72
    65
 73
     6
 40
20.0
 49
10.0
 49
-2.5
 49
1.25
 49
-2.5
 49
1.25
 49
-2.5
  0
LTYPE
  2
DOT
 70
    64
  3
-   -   -   -   -   -   -   -   
 72
    65
 73
     2
 40
2.5
 49
0.625
 49
-1.875
  0
LTYPE
  2
DUMMY
 70
    64
  3
ダミー
 72
    65
 73
     0
 40
0.0
  0
LTYPE
  2
RAND1
 70
    64
  3
ランダム線1
 72
    65
 73
     4
 40
10.0
 49
1.0
 49
-2.0
 49
3.0
 49
-4.0
  0
LTYPE
  2
RAND2
 70
    64
  3
ランダム線2
 72
    65
 73
     4
 40
14.0
 49
2.0
 49
-3.0
 49
4.0
 49
-5.0
  0
LTYPE
  2
RAND3
 70
    64
  3
ランダム線3
 72
    65
 73
     4
 40
18.0
 49
3.0
 49
-4.0
 49
5.0
 49
-6.0
  0
LTYPE
  2
RAND4
 70
    64
  3
ランダム線4
 72
    65
 73
     4
 40
22.0
 49
4.0
 49
-5.0
 49
6.0
 49
-7.0
  0
LTYPE
  2
RAND5
 70
    64
  3
ランダム線5
 72
    65
 73
     4
 40
26.0
 49
5.0
 49
-6.0
 49
7.0
 49
-8.0
  0
LTYPE
  2
LONG1
 70
    64
  3
----------  --  ----------  --  
 72
    65
 73
     4
 40
40.0
 49
32.5
 49
-2.5
 49
2.5
 49
-2.5
  0
LTYPE
  2
LONG2
 70
    64
  3
--------  -  -  --------  -  -  
 72
    65
 73
     6
 40
40.0
 49
30.0
 49
-2.5
 49
1.25
 49
-2.5
 49
1.25
 49
-2.5
  0
LTYPE
  2
LONG3
 70
    64
  3
+++++++++++++++..+++++++++++++++
 72
    65
 73
     2
 40
40.0
 49
37.5
 49
-2.5
  0
LTYPE
  2
LONG4
 70
    64
  3
+++++++++++++++..+++++++++++++++
 72
    65
 73
     2
 40
80.0
 49
75.0
 49
-5.0
  0
LTYPE
  2
LONG5
 70
    64
  3
----------  --  ----------  --  
 72
    65
 73
     4
 40
60.0
 49
37.5
 49
-7.5
 49
7.5
 49
-7.5
  0
LTYPE
  2
dashed
 70
   64
  3
-------   -------------   ------
 72
   65
 73
    2
 40
7.5
 49
6
 49
-1.5
  0
LTYPE
  2
dashed_spaced
 70
   64
  3
----        --------        ----
 72
   65
 73
    2
 40
12
 49
6
 49
-6
  0
LTYPE
  2
long_dashed_dotted
 70
   64
  3
------------- --- --------------
 72
   65
 73
    4
 40
15.25
 49
12
 49
-1.5
 49
0.25
 49
-1.5
  0
LTYPE
  2
long_dashed_double-dotted
 70
   64
  3
----------- --- --- ------------
 72
   65
 73
    6
 40
17
 49
12
 49
-1.5
 49
0.25
 49
-1.5
 49
0.25
 49
-1.5
  0
LTYPE
  2
long_dashed_triplicate-dotted
 70
   64
  3
--------- --- --- --- ----------
 72
   65
 73
    8
 40
18.75
 49
12
 49
-1.5
 49
0.25
 49
-1.5
 49
0.25
 49
-1.5
 49
0.25
 49
-1.5
  0
LTYPE
  2
dotted
 70
   64
  3
   -       -       -       -    
 72
   65
 73
    2
 40
1.75
 49
0.25
 49
-1.5
  0
LTYPE
  2
chain
 70
   64
  3
-------------- -- --------------
 72
   65
 73
    4
 40
18.5
 49
12
 49
-1.5
 49
3.5
 49
-1.5
  0
LTYPE
  2
chain_double_dash
 70
   64
  3
------------ -- -- -------------
 72
   65
 73
    6
 40
23.5
 49
12
 49
-1.5
 49
3.5
 49
-1.5
 49
3.5
 49
-1.5
  0
LTYPE
  2
dashed_dotted
 70
   64
  3
-----------     -     ----------
 72
   65
 73
    4
 40
9.25
 49
6
 49
-1.5
 49
0.25
 49
-1.5
  0
LTYPE
  2
double-dashed_dotted
 70
   64
  3
------   -----------   -   -----
 72
   65
 73
    6
 40
16.75
 49
6
 49
-1.5
 49
6
 49
-1.5
 49
0.25
 49
-1.5
  0
LTYPE
  2
dashed_double-dotted
 70
   64
  3
---------    -    -    ---------
 72
   65
 73
    6
 40
11
 49
6
 49
-1.5
 49
0.25
 49
-1.5
 49
0.25
 49
-1.5
  0
LTYPE
  2
double-dashed_double-dotted
 70
   64
  3
-----   ---------   -   -   ----
 72
   65
 73
    8
 40
18.5
 49
6
 49
-1.5
 49
6
 49
-1.5
 49
0.25
 49
-1.5
 49
0.25
 49
-1.5
  0
LTYPE
  2
dashed_triplicate-dotted
 70
   64
  3
-------    -    -    -    ------
 72
   65
 73
    8
 40
12.75
 49
6
 49
-1.5
 49
0.25
 49
-1.5
 49
0.25
 49
-1.5
 49
0.25
 49
-1.5
  0
LTYPE
  2
double-dashed_triplicate-dotted
 70
   64
  3
-----  ---------  -  -  -  -----
 72
   65
 73
   10
 40
20.25
 49
6
 49
-1.5
 49
6
 49
-1.5
 49
0.25
 49
-1.5
 49
0.25
 49
-1.5
 49
0.25
 49
-1.5
  0
LTYPE
  2
undefined
 70
   64
  3
--------------------------------
 72
   65
 73
    0
 40
0
  0
LTYPE
  2
BORDER
 70
   64
  3
----     --------     -     ----
 72
   65
 73
    6
 40
1.76
 49
0.5
 49
-0.25
 49
0.5
 49
-0.25
 49
0.01
 49
-0.25
  0
LTYPE
  2
BORDER2
 70
   64
  3
----     --------     -     ----
 72
   65
 73
    6
 40
0.885
 49
0.25
 49
-0.125
 49
0.25
 49
-0.125
 49
0.01
 49
-0.125
  0
LTYPE
  2
BORDERX2
 70
   64
  3
----     --------     -     ----
 72
   65
 73
    6
 40
3.5099999999999998
 49
1
 49
-0.5
 49
1
 49
-0.5
 49
0.01
 49
-0.5
  0
LTYPE
  2
CENTER
 70
   64
  3
----------    ----    ----------
 72
   65
 73
    4
 40
2
 49
1.25
 49
-0.25
 49
0.25
 49
-0.25
  0
LTYPE
  2
CENTER2_21
 70
   64
  3
----------    ----    ----------
 72
   65
 73
    4
 40
1.125
 49
0.75
 49
-0.125
 49
0.125
 49
-0.125
  0
LTYPE
  2
CENTERX2
 70
   64
  3
----------    ----    ----------
 72
   65
 73
    4
 40
4
 49
2.5
 49
-0.5
 49
0.5
 49
-0.5
  0
LTYPE
  2
DASHDOT
 70
   64
  3
--------        -        -------
 72
   65
 73
    4
 40
1.01
 49
0.5
 49
-0.25
 49
0.01
 49
-0.25
  0
LTYPE
  2
DASHDOT2
 70
   64
  3
--------        -        -------
 72
   65
 73
    4
 40
0.51
 49
0.25
 49
-0.125
 49
0.01
 49
-0.125
  0
LTYPE
  2
DASHDOTX2
 70
   64
  3
--------        -        -------
 72
   65
 73
    4
 40
2.0099999999999998
 49
1
 49
-0.5
 49
0.01
 49
-0.5
  0
LTYPE
  2
DASHED
 70
   64
  3
------     -----------     -----
 72
   65
 73
    2
 40
0.75
 49
0.5
 49
-0.25
  0
LTYPE
  2
DASHED2_27
 70
   64
  3
------     -----------     -----
 72
   65
 73
    2
 40
0.375
 49
0.25
 49
-0.125
  0
LTYPE
  2
DASHEDX2
 70
   64
  3
------     -----------     -----
 72
   65
 73
    2
 40
1.5
 49
1
 49
-0.5
  0
LTYPE
  2
DIVIDE
 70
   64
  3
------      -      -      ------
 72
   65
 73
    6
 40
1.27
 49
0.5
 49
-0.25
 49
0.01
 49
-0.25
 49
0.01
 49
-0.25
  0
LTYPE
  2
DIVIDE2
 70
   64
  3
------      -      -      ------
 72
   65
 73
    6
 40
0.645
 49
0.25
 49
-0.125
 49
0.01
 49
-0.125
 49
0.01
 49
-0.125
  0
LTYPE
  2
DIVIDEX2
 70
   64
  3
------      -      -      ------
 72
   65
 73
    6
 40
2.5199999999999996
 49
1
 49
-0.5
 49
0.01
 49
-0.5
 49
0.01
 49
-0.5
  0
LTYPE
  2
DOT_32
 70
   64
  3
-               -               
 72
   65
 73
    2
 40
0.26
 49
0.01
 49
-0.25
  0
ENDTAB
  0
TABLE
  2
STYLE
  5
3
100
AcDbSymbolTable
 70
     1
  0
STYLE
  5
10
100
AcDbSymbolTableRecord
100
AcDbTextStyleTableRecord
  2
STANDARD
 70
     0
 40
0.0
 41
1.0
 50
0.0
 71
     0
 42
0.2
  3
txt
  4
bigfont.shx
  0
STYLE
  5
26
100
AcDbSymbolTableRecord
100
AcDbTextStyleTableRecord
  2
TATEGAKI
 70
    68
 40
0.0
 41
1.0
 50
0.0
 71
     0
 42
1.0
  3
txt
  4
bigfont.shx
  0
ENDTAB
  0
TABLE
  2
LAYER
 70
    2
  0
LAYER
  2
_0-4_P-6853
 70
   64
 62
    7
  6
CONTINUOUS
  0
LAYER
  2
ADD_LINE
 70
   64
 62
    7
  6
CONTINUOUS
  0
ENDTAB
  0
ENDSEC
  0
SECTION
  2
BLOCKS
  0
ENDSEC
  0
SECTION
  2
ENTITIES
  0
ARC
  8
_0-4_P-6853
  6
CONTINUOUS
 62
    7
 10
120.80666947274113
 20
75.166980701272678
 40
20.63736258427339
 50
3.1054355250627084
 51
50.858406182535582
  0
ARC
  8
_0-4_P-6853
  6
CONTINUOUS
 62
    7
 10
131.19256354006745
 20
88.1243185127218
 40
4.0337269794411341
 50
49.096831503381068
 51
160.73811717370981
  0
ARC
  8
_0-4_P-6853
  6
CONTINUOUS
 62
    7
 10
131.38255115752679
 20
88.125334207391347
 40
4.2132247177449811
 50
161.60351167091989
 51
211.0369562425314
  0
ARC
  8
_0-4_P-6853
  6
CONTINUOUS
 62
    7
 10
125.63006160071996
 20
85.297611129345853
 40
2.240463975457867
 50
256.81399893930677
 51
17.009996673732516
  0
ARC
  8
_0-4_P-6853
  6
CONTINUOUS
 62
    7
 10
138.82578129568401
 20
106.13646833293041
 40
1.117313688078142
 50
220.82453973066217
 51
34.663933379752336
  0
ARC
  8
_0-4_P-6853
  6
CONTINUOUS
 62
    7
 10
161.18900577699503
 20
116.46372749485619
 40
23.53264847675398
 50
145.51047874015109
 51
204.32070708435151
  0
ARC
  8
_0-4_P-6853
  6
CONTINUOUS
 62
    7
 10
123.31827388615875
 20
144.39595665884013
 40
23.55124345998124
 50
321.66846430562288
 51
353.35386976908438
  0
ARC
  8
_0-4_P-6853
  6
CONTINUOUS
 62
    7
 10
148.42727869632938
 20
141.03121979075172
 40
1.8311359160144931
 50
90
 51
159.57642541480649
  0
ARC
  8
_0-4_P-6853
  6
CONTINUOUS
 62
    7
 10
113.80613476975543
 20
76.621537886891417
 40
31.889045084351299
 50
359.39528699499567
 51
38.458512002397946
  0
ARC
  8
_0-4_P-6853
  6
CONTINUOUS
 62
    7
 10
130.33184799326
 20
90.178171871951349
 40
10.522337088534
 50
36.620409355189523
 51
113.29833566179178
  0
ARC
  8
_0-4_P-6853
  6
CONTINUOUS
 62
    7
 10
130.80960239895768
 20
93.121127444688909
 40
8.1671345026073006
 50
124.6160290209866
 51
240.83521699038249
  0
ARC
  8
_0-4_P-6853
  6
CONTINUOUS
 62
    7
 10
106.99420151915285
 20
80.492423968463697
 40
40.869834592956941
 50
354.0910782096891
 51
37.289217951185137
  0
ARC
  8
_0-4_P-6853
  6
CONTINUOUS
 62
    7
 10
141.64493980101406
 20
72.714972052532545
 40
3.57748713742042
 50
93.705608789190919
 51
155.52969599400649
  0
ARC
  8
_0-4_P-6853
  6
CONTINUOUS
 62
    7
 10
199.90864776736282
 20
70.734211889890616
 40
61.617220920763494
 50
176.7785175517524
 51
181.07533761263909
  0
ARC
  8
_0-4_P-6853
  6
CONTINUOUS
 62
    7
 10
141.62887221702971
 20
71.891772380536622
 40
4.0522244989556677
 50
214.8219796729814
 51
266.84669271994647
  0
ARC
  8
_0-4_P-6853
  6
CONTINUOUS
 62
    7
 10
176.04788791991746
 20
75.166980701272678
 40
20.63736258427339
 50
129.14159381746441
 51
176.8945644749372
  0
ARC
  8
_0-4_P-6853
  6
CONTINUOUS
 62
    7
 10
165.66199385259119
 20
88.1243185127218
 40
4.0337269794411341
 50
19.261882826290201
 51
130.90316849661889
  0
ARC
  8
_0-4_P-6853
  6
CONTINUOUS
 62
    7
 10
165.47200623513186
 20
88.125334207391347
 40
4.2132247177449811
 50
328.96304375746718
 51
18.396488329080093
  0
ARC
  8
_0-4_P-6853
  6
CONTINUOUS
 62
    7
 10
171.22449579193881
 20
85.297611129345853
 40
2.240463975457867
 50
162.99000332626741
 51
283.18600106069317
  0
ARC
  8
_0-4_P-6853
  6
CONTINUOUS
 62
    7
 10
169.78864530021394
 20
94.397895385486436
 40
11.448440279397721
 50
279.79134658811449
 51
357.80199034154361
  0
ARC
  8
_0-4_P-6853
  6
CONTINUOUS
 62
    7
 10
167.67658160939754
 20
95.044696154156668
 40
13.59551533120856
 50
355.4188639434476
 51
130.3490697990427
  0
ARC
  8
_0-4_P-6853
  6
CONTINUOUS
 62
    7
 10
158.02877609697464
 20
106.13646833293041
 40
1.117313688078142
 50
145.33606662024769
 51
319.17546026933911
  0
ARC
  8
_0-4_P-6853
  6
CONTINUOUS
 62
    7
 10
135.66555161566362
 20
116.46372749485619
 40
23.53264847675398
 50
335.67929291564849
 51
34.489521259848871
  0
ARC
  8
_0-4_P-6853
  6
CONTINUOUS
 62
    7
 10
173.53628350650001
 20
144.39595665884013
 40
23.55124345998124
 50
186.64613023091559
 51
218.3315356943771
  0
ARC
  8
_0-4_P-6853
  6
CONTINUOUS
 62
    7
 10
148.42727869632938
 20
141.03121979075172
 40
1.8311359160144931
 50
20.423574585193542
 51
90
  0
ARC
  8
_0-4_P-6853
  6
CONTINUOUS
 62
    7
 10
183.04842262290344
 20
76.621537886891417
 40
31.889045084351299
 50
141.54148799760213
 51
180.60471300499452
  0
ARC
  8
_0-4_P-6853
  6
CONTINUOUS
 62
    7
 10
166.52270939939888
 20
90.178171871951349
 40
10.522337088534
 50
66.701664338208133
 51
143.37959064481049
  0
ARC
  8
_0-4_P-6853
  6
CONTINUOUS
 62
    7
 10
166.04495499370103
 20
93.121127444688909
 40
8.1671345026073006
 50
299.16478300961739
 51
55.383970979007138
  0
ARC
  8
_0-4_P-6853
  6
CONTINUOUS
 62
    7
 10
189.8603558735058
 20
80.492423968463697
 40
40.869834592956941
 50
142.71078204881221
 51
185.90892179030766
  0
ARC
  8
_0-4_P-6853
  6
CONTINUOUS
 62
    7
 10
155.20948533679586
 20
72.719359937886765
 40
3.573116997630688
 50
24.424899329266541
 51
86.287727489572404
  0
ARC
  8
_0-4_P-6853
  6
CONTINUOUS
 62
    7
 10
140.13854196605291
 20
72.383992721143045
 40
18.413736730276518
 50
349.91299026326317
 51
5.6499817748744174
  0
ARC
  8
_0-4_P-6853
  6
CONTINUOUS
 62
    7
 10
155.701109209837
 20
70.985974252064182
 40
3.150427572113002
 50
265.40257052203435
 51
324.55436740344828
  0
ARC
  8
_0-4_P-6853
  6
CONTINUOUS
 62
    7
 10
438.3012005399267
 20
113.19568166936085
 40
292.07669910735359
 50
175.05354248322089
 51
185.3527012732267
  0
ARC
  8
_0-4_P-6853
  6
CONTINUOUS
 62
    7
 10
-126.51206882237659
 20
112.88773409979154
 40
277.18892406311841
 50
354.4659486887623
 51
5.2767688807400042
  0
LINE
  8
_0-4_P-6853
  6
CONTINUOUS
 62
    7
 10
141.40596819929118
 20
67.845683257838914
 11
155.44858919336764
 21
67.845683257838914
  0
LINE
  8
_0-4_P-6853
  6
CONTINUOUS
 62
    7
 10
141.4137268225702
 20
76.284979724359346
 11
155.44083057008913
 21
76.284979724374011
  0
LINE
  8
_0-4_P-6853
  6
CENTER2
 62
    1
 10
148.496159638569
 20
68.247273308766694
 11
148.496159638569
 21
67.1412826002516
  0
ARC
  8
_0-4_P-6853
  6
CONTINUOUS
 62
    7
 10
129.31573766774051
 20
95.044696154156668
 40
13.59551533120856
 50
49.650930200957248
 51
184.5811360565524
  0
ARC
  8
_0-4_P-6853
  6
CONTINUOUS
 62
    7
 10
127.20367397692405
 20
94.397895385486436
 40
11.448440279397721
 50
182.19800965845641
 51
260.20865341188551
  0
ENDSEC
  0
EOF
