  0
SECTION
  2
HEADER
  9
$ACADVER
  1
AC1009
  9
$INSBASE
 10
0
 20
0
 30
0
  9
$EXTMIN
 10
0
 20
0
  9
$EXTMAX
 10
420
 20
297
  9
$LIMMIN
 10
0
 20
0
  9
$LIMMAX
 10
420
 20
297
  9
$LTSCALE
 40
1
  0
ENDSEC
  0
SECTION
  2
TABLES
  0
TABLE
  2
LTYPE
 70
     9
  0
LTYPE
  2
CONTINUOUS
 70
    64
  3
実線
 72
    65
 73
     0
 40
0.0
  0
LTYPE
  2
DASHED1
 70
    64
  3
--  --  --  --  --  --  --  --  
 72
    65
 73
     2
 40
2.5
 49
1.25
 49
-1.25
  0
LTYPE
  2
DASHED2
 70
    64
  3
----    ----    ----    ----    
 72
    65
 73
     2
 40
5.0
 49
2.5
 49
-2.5
  0
LTYPE
  2
DASHED3
 70
    64
  3
------  ------  ------  ------  
 72
    65
 73
     2
 40
5.0
 49
3.75
 49
-1.25
  0
LTYPE
  2
CENTER1
 70
    64
  3
----- - ----- - ----- - ----- - 
 72
    65
 73
     4
 40
10.0
 49
6.25
 49
-1.25
 49
1.25
 49
-1.25
  0
LTYPE
  2
CENTER2
 70
    64
  3
----------  --  ----------  --  
 72
    65
 73
     4
 40
20.0
 49
12.5
 49
-2.5
 49
2.5
 49
-2.5
  0
LTYPE
  2
PHANTOM1
 70
    64
  3
--- - - --- - - --- - - --- - - 
 72
    65
 73
     6
 40
10.0
 49
3.25
 49
-1.25
 49
1.25
 49
-1.25
 49
1.25
 49
-1.25
  0
LTYPE
  2
PHANTOM2
 70
    64
  3
--------  -  -  --------  -  -  
 72
    65
 73
     6
 40
20.0
 49
10.0
 49
-2.5
 49
1.25
 49
-2.5
 49
1.25
 49
-2.5
  0
LTYPE
  2
DOT
 70
    64
  3
-   -   -   -   -   -   -   -   
 72
    65
 73
     2
 40
2.5
 49
0.625
 49
-1.875
  0
LTYPE
  2
DUMMY
 70
    64
  3
ダミー
 72
    65
 73
     0
 40
0.0
  0
LTYPE
  2
RAND1
 70
    64
  3
ランダム線1
 72
    65
 73
     4
 40
10.0
 49
1.0
 49
-2.0
 49
3.0
 49
-4.0
  0
LTYPE
  2
RAND2
 70
    64
  3
ランダム線2
 72
    65
 73
     4
 40
14.0
 49
2.0
 49
-3.0
 49
4.0
 49
-5.0
  0
LTYPE
  2
RAND3
 70
    64
  3
ランダム線3
 72
    65
 73
     4
 40
18.0
 49
3.0
 49
-4.0
 49
5.0
 49
-6.0
  0
LTYPE
  2
RAND4
 70
    64
  3
ランダム線4
 72
    65
 73
     4
 40
22.0
 49
4.0
 49
-5.0
 49
6.0
 49
-7.0
  0
LTYPE
  2
RAND5
 70
    64
  3
ランダム線5
 72
    65
 73
     4
 40
26.0
 49
5.0
 49
-6.0
 49
7.0
 49
-8.0
  0
LTYPE
  2
LONG1
 70
    64
  3
----------  --  ----------  --  
 72
    65
 73
     4
 40
40.0
 49
32.5
 49
-2.5
 49
2.5
 49
-2.5
  0
LTYPE
  2
LONG2
 70
    64
  3
--------  -  -  --------  -  -  
 72
    65
 73
     6
 40
40.0
 49
30.0
 49
-2.5
 49
1.25
 49
-2.5
 49
1.25
 49
-2.5
  0
LTYPE
  2
LONG3
 70
    64
  3
+++++++++++++++..+++++++++++++++
 72
    65
 73
     2
 40
40.0
 49
37.5
 49
-2.5
  0
LTYPE
  2
LONG4
 70
    64
  3
+++++++++++++++..+++++++++++++++
 72
    65
 73
     2
 40
80.0
 49
75.0
 49
-5.0
  0
LTYPE
  2
LONG5
 70
    64
  3
----------  --  ----------  --  
 72
    65
 73
     4
 40
60.0
 49
37.5
 49
-7.5
 49
7.5
 49
-7.5
  0
LTYPE
  2
dashed
 70
   64
  3
-------   -------------   ------
 72
   65
 73
    2
 40
7.5
 49
6
 49
-1.5
  0
LTYPE
  2
dashed_spaced
 70
   64
  3
----        --------        ----
 72
   65
 73
    2
 40
12
 49
6
 49
-6
  0
LTYPE
  2
long_dashed_dotted
 70
   64
  3
------------- --- --------------
 72
   65
 73
    4
 40
15.25
 49
12
 49
-1.5
 49
0.25
 49
-1.5
  0
LTYPE
  2
long_dashed_double-dotted
 70
   64
  3
----------- --- --- ------------
 72
   65
 73
    6
 40
17
 49
12
 49
-1.5
 49
0.25
 49
-1.5
 49
0.25
 49
-1.5
  0
LTYPE
  2
long_dashed_triplicate-dotted
 70
   64
  3
--------- --- --- --- ----------
 72
   65
 73
    8
 40
18.75
 49
12
 49
-1.5
 49
0.25
 49
-1.5
 49
0.25
 49
-1.5
 49
0.25
 49
-1.5
  0
LTYPE
  2
dotted
 70
   64
  3
   -       -       -       -    
 72
   65
 73
    2
 40
1.75
 49
0.25
 49
-1.5
  0
LTYPE
  2
chain
 70
   64
  3
-------------- -- --------------
 72
   65
 73
    4
 40
18.5
 49
12
 49
-1.5
 49
3.5
 49
-1.5
  0
LTYPE
  2
chain_double_dash
 70
   64
  3
------------ -- -- -------------
 72
   65
 73
    6
 40
23.5
 49
12
 49
-1.5
 49
3.5
 49
-1.5
 49
3.5
 49
-1.5
  0
LTYPE
  2
dashed_dotted
 70
   64
  3
-----------     -     ----------
 72
   65
 73
    4
 40
9.25
 49
6
 49
-1.5
 49
0.25
 49
-1.5
  0
LTYPE
  2
double-dashed_dotted
 70
   64
  3
------   -----------   -   -----
 72
   65
 73
    6
 40
16.75
 49
6
 49
-1.5
 49
6
 49
-1.5
 49
0.25
 49
-1.5
  0
LTYPE
  2
dashed_double-dotted
 70
   64
  3
---------    -    -    ---------
 72
   65
 73
    6
 40
11
 49
6
 49
-1.5
 49
0.25
 49
-1.5
 49
0.25
 49
-1.5
  0
LTYPE
  2
double-dashed_double-dotted
 70
   64
  3
-----   ---------   -   -   ----
 72
   65
 73
    8
 40
18.5
 49
6
 49
-1.5
 49
6
 49
-1.5
 49
0.25
 49
-1.5
 49
0.25
 49
-1.5
  0
LTYPE
  2
dashed_triplicate-dotted
 70
   64
  3
-------    -    -    -    ------
 72
   65
 73
    8
 40
12.75
 49
6
 49
-1.5
 49
0.25
 49
-1.5
 49
0.25
 49
-1.5
 49
0.25
 49
-1.5
  0
LTYPE
  2
double-dashed_triplicate-dotted
 70
   64
  3
-----  ---------  -  -  -  -----
 72
   65
 73
   10
 40
20.25
 49
6
 49
-1.5
 49
6
 49
-1.5
 49
0.25
 49
-1.5
 49
0.25
 49
-1.5
 49
0.25
 49
-1.5
  0
LTYPE
  2
undefined
 70
   64
  3
--------------------------------
 72
   65
 73
    0
 40
0
  0
LTYPE
  2
BORDER
 70
   64
  3
----     --------     -     ----
 72
   65
 73
    6
 40
1.76
 49
0.5
 49
-0.25
 49
0.5
 49
-0.25
 49
0.01
 49
-0.25
  0
LTYPE
  2
BORDER2
 70
   64
  3
----     --------     -     ----
 72
   65
 73
    6
 40
0.885
 49
0.25
 49
-0.125
 49
0.25
 49
-0.125
 49
0.01
 49
-0.125
  0
LTYPE
  2
BORDERX2
 70
   64
  3
----     --------     -     ----
 72
   65
 73
    6
 40
3.5099999999999998
 49
1
 49
-0.5
 49
1
 49
-0.5
 49
0.01
 49
-0.5
  0
LTYPE
  2
CENTER
 70
   64
  3
----------    ----    ----------
 72
   65
 73
    4
 40
2
 49
1.25
 49
-0.25
 49
0.25
 49
-0.25
  0
LTYPE
  2
CENTER2_21
 70
   64
  3
----------    ----    ----------
 72
   65
 73
    4
 40
1.125
 49
0.75
 49
-0.125
 49
0.125
 49
-0.125
  0
LTYPE
  2
CENTERX2
 70
   64
  3
----------    ----    ----------
 72
   65
 73
    4
 40
4
 49
2.5
 49
-0.5
 49
0.5
 49
-0.5
  0
LTYPE
  2
DASHDOT
 70
   64
  3
--------        -        -------
 72
   65
 73
    4
 40
1.01
 49
0.5
 49
-0.25
 49
0.01
 49
-0.25
  0
LTYPE
  2
DASHDOT2
 70
   64
  3
--------        -        -------
 72
   65
 73
    4
 40
0.51
 49
0.25
 49
-0.125
 49
0.01
 49
-0.125
  0
LTYPE
  2
DASHDOTX2
 70
   64
  3
--------        -        -------
 72
   65
 73
    4
 40
2.0099999999999998
 49
1
 49
-0.5
 49
0.01
 49
-0.5
  0
LTYPE
  2
DASHED
 70
   64
  3
------     -----------     -----
 72
   65
 73
    2
 40
0.75
 49
0.5
 49
-0.25
  0
LTYPE
  2
DASHED2_27
 70
   64
  3
------     -----------     -----
 72
   65
 73
    2
 40
0.375
 49
0.25
 49
-0.125
  0
LTYPE
  2
DASHEDX2
 70
   64
  3
------     -----------     -----
 72
   65
 73
    2
 40
1.5
 49
1
 49
-0.5
  0
LTYPE
  2
DIVIDE
 70
   64
  3
------      -      -      ------
 72
   65
 73
    6
 40
1.27
 49
0.5
 49
-0.25
 49
0.01
 49
-0.25
 49
0.01
 49
-0.25
  0
LTYPE
  2
DIVIDE2
 70
   64
  3
------      -      -      ------
 72
   65
 73
    6
 40
0.645
 49
0.25
 49
-0.125
 49
0.01
 49
-0.125
 49
0.01
 49
-0.125
  0
LTYPE
  2
DIVIDEX2
 70
   64
  3
------      -      -      ------
 72
   65
 73
    6
 40
2.5199999999999996
 49
1
 49
-0.5
 49
0.01
 49
-0.5
 49
0.01
 49
-0.5
  0
LTYPE
  2
DOT_32
 70
   64
  3
-               -               
 72
   65
 73
    2
 40
0.26
 49
0.01
 49
-0.25
  0
ENDTAB
  0
TABLE
  2
STYLE
  5
3
100
AcDbSymbolTable
 70
     1
  0
STYLE
  5
10
100
AcDbSymbolTableRecord
100
AcDbTextStyleTableRecord
  2
STANDARD
 70
     0
 40
0.0
 41
1.0
 50
0.0
 71
     0
 42
0.2
  3
txt
  4
bigfont.shx
  0
STYLE
  5
26
100
AcDbSymbolTableRecord
100
AcDbTextStyleTableRecord
  2
TATEGAKI
 70
    68
 40
0.0
 41
1.0
 50
0.0
 71
     0
 42
1.0
  3
txt
  4
bigfont.shx
  0
ENDTAB
  0
TABLE
  2
LAYER
 70
    2
  0
LAYER
  2
_0-0_0
 70
   64
 62
    7
  6
CONTINUOUS
  0
LAYER
  2
ADD_LINE
 70
   64
 62
    7
  6
CONTINUOUS
  0
ENDTAB
  0
ENDSEC
  0
SECTION
  2
BLOCKS
  0
ENDSEC
  0
SECTION
  2
ENTITIES
  0
ARC
  8
_0-0_0
  6
CONTINUOUS
 62
    7
 10
146.16710346850795
 20
84.714538505330978
 40
57.452300999999999
 50
4.1610800000000001
 51
37.355010999999998
  0
ARC
  8
_0-0_0
  6
CONTINUOUS
 62
    7
 10
130.62378646850794
 20
179.08792750533098
 40
70.670318999999992
 50
315.73882700000001
 51
345.23814099999998
  0
ARC
  8
_0-0_0
  6
CONTINUOUS
 62
    7
 10
-200.59324853149195
 20
249.48699950533097
 40
409.21833499999991
 50
347.52365900000007
 51
357.99084200000004
  0
ARC
  8
_0-0_0
  6
CONTINUOUS
 62
    7
 10
209.98266746850797
 20
74.317175505330994
 40
15.956631
 50
303.220484
 51
65.903430000000029
  0
ARC
  8
_0-0_0
  6
CONTINUOUS
 62
    7
 10
273.79823146850799
 20
84.714538505330978
 40
57.452300999999999
 50
142.64499000000001
 51
175.83891700000001
  0
LINE
  8
_0-0_0
  6
CONTINUOUS
 62
    7
 10
219.46987946850797
 20
126.20972350533098
 11
225.01958446850796
 21
126.33728050533099
  0
ARC
  8
_0-0_0
  6
CONTINUOUS
 62
    7
 10
620.55860746850794
 20
249.48699950533097
 40
409.21833499999991
 50
182.00914599999999
 51
192.47632899999999
  0
ARC
  8
_0-0_0
  6
CONTINUOUS
 62
    7
 10
289.34154846850799
 20
179.08792750533098
 40
70.670318999999992
 50
194.76186100000001
 51
224.26117400000001
  0
ARC
  8
_0-0_0
  6
CONTINUOUS
 62
    7
 10
209.98266746850797
 20
74.317175505330994
 40
15.956631
 50
114.096575
 51
236.779518
  0
LINE
  8
_0-0_0
  6
CONTINUOUS
 62
    7
 10
215.98539346850797
 20
60.151196505330986
 11
203.97994246850797
 21
60.151196505330986
  0
ARC
  8
_0-0_0
  6
CONTINUOUS
 62
    7
 10
203.97994246850797
 20
65.151196505330986
 40
5
 50
236.779518
 51
270.000001
  0
ARC
  8
_0-0_0
  6
CONTINUOUS
 62
    7
 10
215.98539346850797
 20
65.151196505330986
 40
5
 50
270.000001
 51
303.220484
  0
LINE
  8
_0-0_0
  6
CONTINUOUS
 62
    7
 10
209.61643846850797
 20
108.53124450533097
 11
209.61643846850797
 21
94.960950505330985
  0
LINE
  8
_0-0_0
  6
CONTINUOUS
 62
    7
 10
203.46796146850795
 20
88.883319505330974
 11
209.09543746850795
 21
88.778265505330978
  0
LINE
  8
_0-0_0
  6
CONTINUOUS
 62
    7
 10
210.90390646850796
 20
88.609625505330996
 11
216.49737446850796
 21
88.883319505330974
  0
LINE
  8
_0-0_0
  6
CONTINUOUS
 62
    7
 10
188.39935446850797
 20
126.59239550533098
 11
203.09434546850795
 21
126.71995250533098
  0
LINE
  8
_0-0_0
  6
CONTINUOUS
 62
    7
 10
188.39935446850797
 20
126.59239550533098
 11
203.09434546850795
 21
126.71995250533098
  0
ARC
  8
_0-0_0
  6
CONTINUOUS
 62
    7
 10
176.97666746850797
 20
109.39121150533099
 40
18.013013999999998
 50
34.42258600000001
 51
71.563210999999995
  0
ARC
  8
_0-0_0
  6
CONTINUOUS
 62
    7
 10
182.74285446850797
 20
128.46741950533098
 40
1.988955
 50
139.27849900000001
 51
267.999684
  0
LINE
  8
_0-0_0
  6
CONTINUOUS
 62
    7
 10
209.99876746850796
 20
124.20728150533098
 11
209.61643846850797
 21
113.75659250533099
  0
LINE
  8
_0-0_0
  6
CONTINUOUS
 62
    7
 10
211.30165446850796
 20
126.71995250533098
 11
217.47667646850795
 21
126.33728050533099
  0
LINE
  8
_0-0_0
  6
CONTINUOUS
 62
    7
 10
209.32969246850797
 20
138.08954550533099
 11
209.99876746850796
 21
133.48812250533098
  0
LINE
  8
_0-0_0
  6
CONTINUOUS
 62
    7
 10
209.99876746850796
 20
218.10753250533099
 11
209.99876746850796
 21
184.25977850533096
  0
LINE
  8
_0-0_0
  6
CONTINUOUS
 62
    7
 10
209.61643846850797
 20
176.53873350533098
 11
209.99876746850796
 21
164.606225505331
  0
LINE
  8
_0-0_0
  6
CONTINUOUS
 62
    7
 10
209.61643846850797
 20
158.99094250533099
 11
209.61643846850797
 21
141.75508450533098
  0
LINE
  8
_0-0_0
  6
CONTINUOUS
 62
    7
 10
201.96095246850797
 20
155.03769550533099
 11
209.26936646850797
 21
155.771142505331
  0
LINE
  8
_0-0_0
  6
CONTINUOUS
 62
    7
 10
204.73580746850797
 20
140.94259650533098
 11
208.40955546850796
 21
141.452832505331
  0
LINE
  8
_0-0_0
  6
CONTINUOUS
 62
    7
 10
200.82756446850797
 20
140.68748250533099
 11
202.46902646850796
 21
140.94259650533098
  0
LINE
  8
_0-0_0
  6
CONTINUOUS
 62
    7
 10
210.79358246850796
 20
141.58038350533099
 11
212.94311546850795
 21
143.07918150533098
  0
LINE
  8
_0-0_0
  6
CONTINUOUS
 62
    7
 10
214.31100046850796
 20
143.33430250533098
 11
220.21244646850795
 21
143.84452550533098
  0
LINE
  8
_0-0_0
  6
CONTINUOUS
 62
    7
 10
210.63725146850797
 20
156.91916550533099
 11
213.80292746850796
 21
156.02625750533099
  0
LINE
  8
_0-0_0
  6
CONTINUOUS
 62
    7
 10
218.57098346850796
 20
155.165246505331
 11
219.35263046850795
 21
155.03769550533099
  0
LINE
  8
_0-0_0
  6
CONTINUOUS
 62
    7
 10
209.32969246850797
 20
234.79744950533097
 11
209.61643846850797
 21
223.64484850533097
  0
ARC
  8
_0-0_0
  6
CONTINUOUS
 62
    7
 10
209.78688346850797
 20
235.033276505331
 40
1.80813
 50
3.3889260000000001
 51
83.783827000000016
  0
ARC
  8
_0-0_0
  6
CONTINUOUS
 62
    7
 10
210.17845146850797
 20
235.033276505331
 40
1.80813
 50
96.216178000000028
 51
176.61107000000001
  0
ARC
  8
_0-0_0
  6
CONTINUOUS
 62
    7
 10
242.98867146850796
 20
109.39121150533099
 40
18.013013999999998
 50
108.43679399999992
 51
145.57742300000001
  0
ARC
  8
_0-0_0
  6
CONTINUOUS
 62
    7
 10
237.22248246850796
 20
128.46741950533098
 40
1.988955
 50
272.00031700000005
 51
40.721499000000037
  0
LINE
  8
_0-0_0
  6
CONTINUOUS
 62
    7
 10
222.36197946850797
 20
143.58941050533099
 11
223.49536846850796
 21
143.33430250533098
  0
ENDSEC
  0
EOF
