  0
SECTION
  2
HEADER
  9
$ACADVER
  1
AC1009
  9
$INSBASE
 10
0
 20
0
 30
0
  9
$EXTMIN
 10
0
 20
0
  9
$EXTMAX
 10
594
 20
420
  9
$LIMMIN
 10
0
 20
0
  9
$LIMMAX
 10
594
 20
420
  9
$LTSCALE
 40
1
  0
ENDSEC
  0
SECTION
  2
TABLES
  0
TABLE
  2
LTYPE
 70
     9
  0
LTYPE
  2
CONTINUOUS
 70
    64
  3
実線
 72
    65
 73
     0
 40
0.0
  0
LTYPE
  2
DASHED1
 70
    64
  3
--  --  --  --  --  --  --  --  
 72
    65
 73
     2
 40
2.5
 49
1.25
 49
-1.25
  0
LTYPE
  2
DASHED2
 70
    64
  3
----    ----    ----    ----    
 72
    65
 73
     2
 40
5.0
 49
2.5
 49
-2.5
  0
LTYPE
  2
DASHED3
 70
    64
  3
------  ------  ------  ------  
 72
    65
 73
     2
 40
5.0
 49
3.75
 49
-1.25
  0
LTYPE
  2
CENTER1
 70
    64
  3
----- - ----- - ----- - ----- - 
 72
    65
 73
     4
 40
10.0
 49
6.25
 49
-1.25
 49
1.25
 49
-1.25
  0
LTYPE
  2
CENTER2
 70
    64
  3
----------  --  ----------  --  
 72
    65
 73
     4
 40
20.0
 49
12.5
 49
-2.5
 49
2.5
 49
-2.5
  0
LTYPE
  2
PHANTOM1
 70
    64
  3
--- - - --- - - --- - - --- - - 
 72
    65
 73
     6
 40
10.0
 49
3.25
 49
-1.25
 49
1.25
 49
-1.25
 49
1.25
 49
-1.25
  0
LTYPE
  2
PHANTOM2
 70
    64
  3
--------  -  -  --------  -  -  
 72
    65
 73
     6
 40
20.0
 49
10.0
 49
-2.5
 49
1.25
 49
-2.5
 49
1.25
 49
-2.5
  0
LTYPE
  2
DOT
 70
    64
  3
-   -   -   -   -   -   -   -   
 72
    65
 73
     2
 40
2.5
 49
0.625
 49
-1.875
  0
LTYPE
  2
DUMMY
 70
    64
  3
ダミー
 72
    65
 73
     0
 40
0.0
  0
LTYPE
  2
RAND1
 70
    64
  3
ランダム線1
 72
    65
 73
     4
 40
10.0
 49
1.0
 49
-2.0
 49
3.0
 49
-4.0
  0
LTYPE
  2
RAND2
 70
    64
  3
ランダム線2
 72
    65
 73
     4
 40
14.0
 49
2.0
 49
-3.0
 49
4.0
 49
-5.0
  0
LTYPE
  2
RAND3
 70
    64
  3
ランダム線3
 72
    65
 73
     4
 40
18.0
 49
3.0
 49
-4.0
 49
5.0
 49
-6.0
  0
LTYPE
  2
RAND4
 70
    64
  3
ランダム線4
 72
    65
 73
     4
 40
22.0
 49
4.0
 49
-5.0
 49
6.0
 49
-7.0
  0
LTYPE
  2
RAND5
 70
    64
  3
ランダム線5
 72
    65
 73
     4
 40
26.0
 49
5.0
 49
-6.0
 49
7.0
 49
-8.0
  0
LTYPE
  2
LONG1
 70
    64
  3
----------  --  ----------  --  
 72
    65
 73
     4
 40
40.0
 49
32.5
 49
-2.5
 49
2.5
 49
-2.5
  0
LTYPE
  2
LONG2
 70
    64
  3
--------  -  -  --------  -  -  
 72
    65
 73
     6
 40
40.0
 49
30.0
 49
-2.5
 49
1.25
 49
-2.5
 49
1.25
 49
-2.5
  0
LTYPE
  2
LONG3
 70
    64
  3
+++++++++++++++..+++++++++++++++
 72
    65
 73
     2
 40
40.0
 49
37.5
 49
-2.5
  0
LTYPE
  2
LONG4
 70
    64
  3
+++++++++++++++..+++++++++++++++
 72
    65
 73
     2
 40
80.0
 49
75.0
 49
-5.0
  0
LTYPE
  2
LONG5
 70
    64
  3
----------  --  ----------  --  
 72
    65
 73
     4
 40
60.0
 49
37.5
 49
-7.5
 49
7.5
 49
-7.5
  0
LTYPE
  2
dashed
 70
   64
  3
-------   -------------   ------
 72
   65
 73
    2
 40
7.5
 49
6
 49
-1.5
  0
LTYPE
  2
dashed_spaced
 70
   64
  3
----        --------        ----
 72
   65
 73
    2
 40
12
 49
6
 49
-6
  0
LTYPE
  2
long_dashed_dotted
 70
   64
  3
------------- --- --------------
 72
   65
 73
    4
 40
15.25
 49
12
 49
-1.5
 49
0.25
 49
-1.5
  0
LTYPE
  2
long_dashed_double-dotted
 70
   64
  3
----------- --- --- ------------
 72
   65
 73
    6
 40
17
 49
12
 49
-1.5
 49
0.25
 49
-1.5
 49
0.25
 49
-1.5
  0
LTYPE
  2
long_dashed_triplicate-dotted
 70
   64
  3
--------- --- --- --- ----------
 72
   65
 73
    8
 40
18.75
 49
12
 49
-1.5
 49
0.25
 49
-1.5
 49
0.25
 49
-1.5
 49
0.25
 49
-1.5
  0
LTYPE
  2
dotted
 70
   64
  3
   -       -       -       -    
 72
   65
 73
    2
 40
1.75
 49
0.25
 49
-1.5
  0
LTYPE
  2
chain
 70
   64
  3
-------------- -- --------------
 72
   65
 73
    4
 40
18.5
 49
12
 49
-1.5
 49
3.5
 49
-1.5
  0
LTYPE
  2
chain_double_dash
 70
   64
  3
------------ -- -- -------------
 72
   65
 73
    6
 40
23.5
 49
12
 49
-1.5
 49
3.5
 49
-1.5
 49
3.5
 49
-1.5
  0
LTYPE
  2
dashed_dotted
 70
   64
  3
-----------     -     ----------
 72
   65
 73
    4
 40
9.25
 49
6
 49
-1.5
 49
0.25
 49
-1.5
  0
LTYPE
  2
double-dashed_dotted
 70
   64
  3
------   -----------   -   -----
 72
   65
 73
    6
 40
16.75
 49
6
 49
-1.5
 49
6
 49
-1.5
 49
0.25
 49
-1.5
  0
LTYPE
  2
dashed_double-dotted
 70
   64
  3
---------    -    -    ---------
 72
   65
 73
    6
 40
11
 49
6
 49
-1.5
 49
0.25
 49
-1.5
 49
0.25
 49
-1.5
  0
LTYPE
  2
double-dashed_double-dotted
 70
   64
  3
-----   ---------   -   -   ----
 72
   65
 73
    8
 40
18.5
 49
6
 49
-1.5
 49
6
 49
-1.5
 49
0.25
 49
-1.5
 49
0.25
 49
-1.5
  0
LTYPE
  2
dashed_triplicate-dotted
 70
   64
  3
-------    -    -    -    ------
 72
   65
 73
    8
 40
12.75
 49
6
 49
-1.5
 49
0.25
 49
-1.5
 49
0.25
 49
-1.5
 49
0.25
 49
-1.5
  0
LTYPE
  2
double-dashed_triplicate-dotted
 70
   64
  3
-----  ---------  -  -  -  -----
 72
   65
 73
   10
 40
20.25
 49
6
 49
-1.5
 49
6
 49
-1.5
 49
0.25
 49
-1.5
 49
0.25
 49
-1.5
 49
0.25
 49
-1.5
  0
LTYPE
  2
undefined
 70
   64
  3
--------------------------------
 72
   65
 73
    0
 40
0
  0
LTYPE
  2
BORDER
 70
   64
  3
----     --------     -     ----
 72
   65
 73
    6
 40
1.76
 49
0.5
 49
-0.25
 49
0.5
 49
-0.25
 49
0.01
 49
-0.25
  0
LTYPE
  2
BORDER2
 70
   64
  3
----     --------     -     ----
 72
   65
 73
    6
 40
0.885
 49
0.25
 49
-0.125
 49
0.25
 49
-0.125
 49
0.01
 49
-0.125
  0
LTYPE
  2
BORDERX2
 70
   64
  3
----     --------     -     ----
 72
   65
 73
    6
 40
3.5099999999999998
 49
1
 49
-0.5
 49
1
 49
-0.5
 49
0.01
 49
-0.5
  0
LTYPE
  2
CENTER
 70
   64
  3
----------    ----    ----------
 72
   65
 73
    4
 40
2
 49
1.25
 49
-0.25
 49
0.25
 49
-0.25
  0
LTYPE
  2
CENTER2_21
 70
   64
  3
----------    ----    ----------
 72
   65
 73
    4
 40
1.125
 49
0.75
 49
-0.125
 49
0.125
 49
-0.125
  0
LTYPE
  2
CENTERX2
 70
   64
  3
----------    ----    ----------
 72
   65
 73
    4
 40
4
 49
2.5
 49
-0.5
 49
0.5
 49
-0.5
  0
LTYPE
  2
DASHDOT
 70
   64
  3
--------        -        -------
 72
   65
 73
    4
 40
1.01
 49
0.5
 49
-0.25
 49
0.01
 49
-0.25
  0
LTYPE
  2
DASHDOT2
 70
   64
  3
--------        -        -------
 72
   65
 73
    4
 40
0.51
 49
0.25
 49
-0.125
 49
0.01
 49
-0.125
  0
LTYPE
  2
DASHDOTX2
 70
   64
  3
--------        -        -------
 72
   65
 73
    4
 40
2.0099999999999998
 49
1
 49
-0.5
 49
0.01
 49
-0.5
  0
LTYPE
  2
DASHED
 70
   64
  3
------     -----------     -----
 72
   65
 73
    2
 40
0.75
 49
0.5
 49
-0.25
  0
LTYPE
  2
DASHED2_27
 70
   64
  3
------     -----------     -----
 72
   65
 73
    2
 40
0.375
 49
0.25
 49
-0.125
  0
LTYPE
  2
DASHEDX2
 70
   64
  3
------     -----------     -----
 72
   65
 73
    2
 40
1.5
 49
1
 49
-0.5
  0
LTYPE
  2
DIVIDE
 70
   64
  3
------      -      -      ------
 72
   65
 73
    6
 40
1.27
 49
0.5
 49
-0.25
 49
0.01
 49
-0.25
 49
0.01
 49
-0.25
  0
LTYPE
  2
DIVIDE2
 70
   64
  3
------      -      -      ------
 72
   65
 73
    6
 40
0.645
 49
0.25
 49
-0.125
 49
0.01
 49
-0.125
 49
0.01
 49
-0.125
  0
LTYPE
  2
DIVIDEX2
 70
   64
  3
------      -      -      ------
 72
   65
 73
    6
 40
2.5199999999999996
 49
1
 49
-0.5
 49
0.01
 49
-0.5
 49
0.01
 49
-0.5
  0
LTYPE
  2
DOT_32
 70
   64
  3
-               -               
 72
   65
 73
    2
 40
0.26
 49
0.01
 49
-0.25
  0
ENDTAB
  0
TABLE
  2
STYLE
  5
3
100
AcDbSymbolTable
 70
     1
  0
STYLE
  5
10
100
AcDbSymbolTableRecord
100
AcDbTextStyleTableRecord
  2
STANDARD
 70
     0
 40
0.0
 41
1.0
 50
0.0
 71
     0
 42
0.2
  3
txt
  4
bigfont.shx
  0
STYLE
  5
26
100
AcDbSymbolTableRecord
100
AcDbTextStyleTableRecord
  2
TATEGAKI
 70
    68
 40
0.0
 41
1.0
 50
0.0
 71
     0
 42
1.0
  3
txt
  4
bigfont.shx
  0
ENDTAB
  0
TABLE
  2
LAYER
 70
    2
  0
LAYER
  2
_0-0_0
 70
   64
 62
    7
  6
CONTINUOUS
  0
LAYER
  2
ADD_LINE
 70
   64
 62
    7
  6
CONTINUOUS
  0
ENDTAB
  0
ENDSEC
  0
SECTION
  2
BLOCKS
  0
ENDSEC
  0
SECTION
  2
ENTITIES
  0
LINE
  8
_0-0_0
  6
CONTINUOUS
 62
    7
 10
312.00000000000091
 20
74.999999999999773
 11
282
 21
74.999999999999886
  0
LINE
  8
_0-0_0
  6
CONTINUOUS
 62
    7
 10
282
 20
74.999999999999659
 11
284.5
 21
64.999999999999773
  0
LINE
  8
_0-0_0
  6
CONTINUOUS
 62
    7
 10
282
 20
89.999999999999773
 11
312
 21
89.999999999999886
  0
LINE
  8
_0-0_0
  6
CONTINUOUS
 62
    7
 10
282
 20
89.999999999999773
 11
282
 21
119.99999999999989
  0
LINE
  8
_0-0_0
  6
CONTINUOUS
 62
    7
 10
312
 20
89.999999999999773
 11
312
 21
119.99999999999977
  0
LINE
  8
_0-0_0
  6
CONTINUOUS
 62
    7
 10
282
 20
89.999999999999545
 11
278.1588936020139
 21
85.700921998321974
  0
LINE
  8
_0-0_0
  6
CONTINUOUS
 62
    7
 10
282
 20
74.999999999999773
 11
278.1588936020139
 21
79.299078001677003
  0
ARC
  8
_0-0_0
  6
CONTINUOUS
 62
    7
 10
282
 20
82.499999999999432
 40
5
 50
140.19442890773479
 51
219.80557109226524
  0
LINE
  8
_0-0_0
  6
CONTINUOUS
 62
    7
 10
312
 20
74.999999999999659
 11
309.5
 21
64.999999999999773
  0
LINE
  8
_0-0_0
  6
CONTINUOUS
 62
    7
 10
312
 20
89.999999999999545
 11
315.84110639798701
 21
85.700921998321974
  0
LINE
  8
_0-0_0
  6
CONTINUOUS
 62
    7
 10
312
 20
74.999999999999773
 11
315.84110639798701
 21
79.299078001677003
  0
ARC
  8
_0-0_0
  6
CONTINUOUS
 62
    7
 10
312
 20
82.499999999999432
 40
5
 50
320.19442890774241
 51
39.805571092257594
  0
LINE
  8
_0-0_0
  6
CONTINUOUS
 62
    7
 10
312.00000000000091
 20
119.99999999999977
 11
282
 21
119.99999999999989
  0
LINE
  8
_0-0_0
  6
CONTINUOUS
 62
    7
 10
282
 20
134.99999999999977
 11
312
 21
134.99999999999989
  0
LINE
  8
_0-0_0
  6
CONTINUOUS
 62
    7
 10
282
 20
134.99999999999955
 11
278.1588936020139
 21
130.70092199832186
  0
LINE
  8
_0-0_0
  6
CONTINUOUS
 62
    7
 10
282
 20
119.99999999999977
 11
278.1588936020139
 21
124.299078001677
  0
ARC
  8
_0-0_0
  6
CONTINUOUS
 62
    7
 10
282
 20
127.49999999999943
 40
5
 50
140.1944289077349
 51
219.80557109226507
  0
LINE
  8
_0-0_0
  6
CONTINUOUS
 62
    7
 10
312
 20
134.99999999999955
 11
315.84110639798701
 21
130.70092199832186
  0
LINE
  8
_0-0_0
  6
CONTINUOUS
 62
    7
 10
312
 20
119.99999999999977
 11
315.84110639798701
 21
124.299078001677
  0
ARC
  8
_0-0_0
  6
CONTINUOUS
 62
    7
 10
312
 20
127.49999999999943
 40
5
 50
320.19442890774241
 51
39.805571092257594
  0
LINE
  8
_0-0_0
  6
CONTINUOUS
 62
    7
 10
284.5
 20
64.999999999999773
 11
309.5
 21
64.999999999999773
  0
ARC
  8
_0-0_0
  6
CONTINUOUS
 62
    7
 10
223.54069347915197
 20
137.62742846082551
 40
58.518321056018877
 50
357.42659759917746
 51
50.105310344593057
  0
LINE
  8
_0-0_0
  6
CONTINUOUS
 62
    7
 10
290.5
 20
348.49999999999977
 11
290.5
 21
309.99999999999943
  0
ARC
  8
_0-0_0
  6
CONTINUOUS
 62
    7
 10
297
 20
348.49999999999977
 40
6.5
 50
0
 51
180
  0
ARC
  8
_0-0_0
  6
CONTINUOUS
 62
    7
 10
27.033331259810893
 20
311.40686350130034
 40
263.4704249094454
 50
332.17306294838028
 51
359.69405399461726
  0
ARC
  8
_0-0_0
  6
CONTINUOUS
 62
    7
 10
264.5
 20
186.16504055177245
 40
5
 50
153.21551759878932
 51
226.73431122803402
  0
ARC
  8
_0-0_0
  6
CONTINUOUS
 62
    7
 10
370.45930652084894
 20
137.62742846082551
 40
58.518321056018877
 50
129.894689655402
 51
182.5734024008222
  0
ARC
  8
_0-0_0
  6
CONTINUOUS
 62
    7
 10
329.5
 20
186.16504055177245
 40
5
 50
313.26568877196786
 51
26.784482401208539
  0
LINE
  8
_0-0_0
  6
CONTINUOUS
 62
    7
 10
303.50000000000091
 20
348.49999999999977
 11
303.5
 21
309.99999999999943
  0
ARC
  8
_0-0_0
  6
CONTINUOUS
 62
    7
 10
566.96666874019002
 20
311.40686350130034
 40
263.4704249094454
 50
180.30594600538276
 51
207.82693705162441
  0
ARC
  8
_0-0_0
  6
CONTINUOUS
 62
    7
 10
278.25000000000091
 20
118.07592960514739
 40
68.623576300707526
 50
75.872221089616914
 51
105.5080576530179
  0
ARC
  8
_0-0_0
  6
CONTINUOUS
 62
    7
 10
278.25000000000091
 20
118.07592960514739
 40
72.623576300707526
 50
76.665166107854191
 51
104.54301858333672
  0
ARC
  8
_0-0_0
  6
CONTINUOUS
 62
    7
 10
315.75000000000091
 20
118.07592960514739
 40
68.623576300707526
 50
74.491942346983237
 51
104.1277789103835
  0
ARC
  8
_0-0_0
  6
CONTINUOUS
 62
    7
 10
315.75000000000091
 20
118.07592960514739
 40
72.623576300707526
 50
75.456981416664533
 51
103.33483389214599
  0
LINE
  8
_0-0_0
  6
CONTINUOUS
 62
    7
 10
299
 20
354.99999999999977
 11
299.00000000000091
 21
188.7414893546088
  0
LINE
  8
_0-0_0
  6
CONTINUOUS
 62
    7
 10
299.00000000000091
 20
184.6239027095105
 11
299.00000000000091
 21
134.99999999999977
  0
LINE
  8
_0-0_0
  6
CONTINUOUS
 62
    7
 10
295
 20
355.00000000000023
 11
295.00000000000091
 21
188.7414893546088
  0
LINE
  8
_0-0_0
  6
CONTINUOUS
 62
    7
 10
295.00000000000091
 20
184.6239027095105
 11
295.00000000000091
 21
135.00000000000023
  0
ENDSEC
  0
EOF
