  0
SECTION
  2
HEADER
  9
$ACADVER
  1
AC1009
  9
$INSBASE
 10
0
 20
0
 30
0
  9
$EXTMIN
 10
0
 20
0
  9
$EXTMAX
 10
420
 20
297
  9
$LIMMIN
 10
0
 20
0
  9
$LIMMAX
 10
420
 20
297
  9
$LTSCALE
 40
1
  0
ENDSEC
  0
SECTION
  2
TABLES
  0
TABLE
  2
LTYPE
 70
     9
  0
LTYPE
  2
CONTINUOUS
 70
    64
  3
実線
 72
    65
 73
     0
 40
0.0
  0
LTYPE
  2
DASHED1
 70
    64
  3
--  --  --  --  --  --  --  --  
 72
    65
 73
     2
 40
2.5
 49
1.25
 49
-1.25
  0
LTYPE
  2
DASHED2
 70
    64
  3
----    ----    ----    ----    
 72
    65
 73
     2
 40
5.0
 49
2.5
 49
-2.5
  0
LTYPE
  2
DASHED3
 70
    64
  3
------  ------  ------  ------  
 72
    65
 73
     2
 40
5.0
 49
3.75
 49
-1.25
  0
LTYPE
  2
CENTER1
 70
    64
  3
----- - ----- - ----- - ----- - 
 72
    65
 73
     4
 40
10.0
 49
6.25
 49
-1.25
 49
1.25
 49
-1.25
  0
LTYPE
  2
CENTER2
 70
    64
  3
----------  --  ----------  --  
 72
    65
 73
     4
 40
20.0
 49
12.5
 49
-2.5
 49
2.5
 49
-2.5
  0
LTYPE
  2
PHANTOM1
 70
    64
  3
--- - - --- - - --- - - --- - - 
 72
    65
 73
     6
 40
10.0
 49
3.25
 49
-1.25
 49
1.25
 49
-1.25
 49
1.25
 49
-1.25
  0
LTYPE
  2
PHANTOM2
 70
    64
  3
--------  -  -  --------  -  -  
 72
    65
 73
     6
 40
20.0
 49
10.0
 49
-2.5
 49
1.25
 49
-2.5
 49
1.25
 49
-2.5
  0
LTYPE
  2
DOT
 70
    64
  3
-   -   -   -   -   -   -   -   
 72
    65
 73
     2
 40
2.5
 49
0.625
 49
-1.875
  0
LTYPE
  2
DUMMY
 70
    64
  3
ダミー
 72
    65
 73
     0
 40
0.0
  0
LTYPE
  2
RAND1
 70
    64
  3
ランダム線1
 72
    65
 73
     4
 40
10.0
 49
1.0
 49
-2.0
 49
3.0
 49
-4.0
  0
LTYPE
  2
RAND2
 70
    64
  3
ランダム線2
 72
    65
 73
     4
 40
14.0
 49
2.0
 49
-3.0
 49
4.0
 49
-5.0
  0
LTYPE
  2
RAND3
 70
    64
  3
ランダム線3
 72
    65
 73
     4
 40
18.0
 49
3.0
 49
-4.0
 49
5.0
 49
-6.0
  0
LTYPE
  2
RAND4
 70
    64
  3
ランダム線4
 72
    65
 73
     4
 40
22.0
 49
4.0
 49
-5.0
 49
6.0
 49
-7.0
  0
LTYPE
  2
RAND5
 70
    64
  3
ランダム線5
 72
    65
 73
     4
 40
26.0
 49
5.0
 49
-6.0
 49
7.0
 49
-8.0
  0
LTYPE
  2
LONG1
 70
    64
  3
----------  --  ----------  --  
 72
    65
 73
     4
 40
40.0
 49
32.5
 49
-2.5
 49
2.5
 49
-2.5
  0
LTYPE
  2
LONG2
 70
    64
  3
--------  -  -  --------  -  -  
 72
    65
 73
     6
 40
40.0
 49
30.0
 49
-2.5
 49
1.25
 49
-2.5
 49
1.25
 49
-2.5
  0
LTYPE
  2
LONG3
 70
    64
  3
+++++++++++++++..+++++++++++++++
 72
    65
 73
     2
 40
40.0
 49
37.5
 49
-2.5
  0
LTYPE
  2
LONG4
 70
    64
  3
+++++++++++++++..+++++++++++++++
 72
    65
 73
     2
 40
80.0
 49
75.0
 49
-5.0
  0
LTYPE
  2
LONG5
 70
    64
  3
----------  --  ----------  --  
 72
    65
 73
     4
 40
60.0
 49
37.5
 49
-7.5
 49
7.5
 49
-7.5
  0
LTYPE
  2
dashed
 70
   64
  3
-------   -------------   ------
 72
   65
 73
    2
 40
7.5
 49
6
 49
-1.5
  0
LTYPE
  2
dashed_spaced
 70
   64
  3
----        --------        ----
 72
   65
 73
    2
 40
12
 49
6
 49
-6
  0
LTYPE
  2
long_dashed_dotted
 70
   64
  3
------------- --- --------------
 72
   65
 73
    4
 40
15.25
 49
12
 49
-1.5
 49
0.25
 49
-1.5
  0
LTYPE
  2
long_dashed_double-dotted
 70
   64
  3
----------- --- --- ------------
 72
   65
 73
    6
 40
17
 49
12
 49
-1.5
 49
0.25
 49
-1.5
 49
0.25
 49
-1.5
  0
LTYPE
  2
long_dashed_triplicate-dotted
 70
   64
  3
--------- --- --- --- ----------
 72
   65
 73
    8
 40
18.75
 49
12
 49
-1.5
 49
0.25
 49
-1.5
 49
0.25
 49
-1.5
 49
0.25
 49
-1.5
  0
LTYPE
  2
dotted
 70
   64
  3
   -       -       -       -    
 72
   65
 73
    2
 40
1.75
 49
0.25
 49
-1.5
  0
LTYPE
  2
chain
 70
   64
  3
-------------- -- --------------
 72
   65
 73
    4
 40
18.5
 49
12
 49
-1.5
 49
3.5
 49
-1.5
  0
LTYPE
  2
chain_double_dash
 70
   64
  3
------------ -- -- -------------
 72
   65
 73
    6
 40
23.5
 49
12
 49
-1.5
 49
3.5
 49
-1.5
 49
3.5
 49
-1.5
  0
LTYPE
  2
dashed_dotted
 70
   64
  3
-----------     -     ----------
 72
   65
 73
    4
 40
9.25
 49
6
 49
-1.5
 49
0.25
 49
-1.5
  0
LTYPE
  2
double-dashed_dotted
 70
   64
  3
------   -----------   -   -----
 72
   65
 73
    6
 40
16.75
 49
6
 49
-1.5
 49
6
 49
-1.5
 49
0.25
 49
-1.5
  0
LTYPE
  2
dashed_double-dotted
 70
   64
  3
---------    -    -    ---------
 72
   65
 73
    6
 40
11
 49
6
 49
-1.5
 49
0.25
 49
-1.5
 49
0.25
 49
-1.5
  0
LTYPE
  2
double-dashed_double-dotted
 70
   64
  3
-----   ---------   -   -   ----
 72
   65
 73
    8
 40
18.5
 49
6
 49
-1.5
 49
6
 49
-1.5
 49
0.25
 49
-1.5
 49
0.25
 49
-1.5
  0
LTYPE
  2
dashed_triplicate-dotted
 70
   64
  3
-------    -    -    -    ------
 72
   65
 73
    8
 40
12.75
 49
6
 49
-1.5
 49
0.25
 49
-1.5
 49
0.25
 49
-1.5
 49
0.25
 49
-1.5
  0
LTYPE
  2
double-dashed_triplicate-dotted
 70
   64
  3
-----  ---------  -  -  -  -----
 72
   65
 73
   10
 40
20.25
 49
6
 49
-1.5
 49
6
 49
-1.5
 49
0.25
 49
-1.5
 49
0.25
 49
-1.5
 49
0.25
 49
-1.5
  0
LTYPE
  2
undefined
 70
   64
  3
--------------------------------
 72
   65
 73
    0
 40
0
  0
LTYPE
  2
BORDER
 70
   64
  3
----     --------     -     ----
 72
   65
 73
    0
 40
0
  0
LTYPE
  2
BORDER2
 70
   64
  3
----     --------     -     ----
 72
   65
 73
    0
 40
0
  0
LTYPE
  2
BORDERX2
 70
   64
  3
----     --------     -     ----
 72
   65
 73
    0
 40
0
  0
LTYPE
  2
CENTER
 70
   64
  3
----------    ----    ----------
 72
   65
 73
    0
 40
0
  0
LTYPE
  2
CENTER2_21
 70
   64
  3
----------    ----    ----------
 72
   65
 73
    0
 40
0
  0
LTYPE
  2
CENTERX2
 70
   64
  3
----------    ----    ----------
 72
   65
 73
    0
 40
0
  0
LTYPE
  2
DASHDOT
 70
   64
  3
--------        -        -------
 72
   65
 73
    0
 40
0
  0
LTYPE
  2
DASHDOT2
 70
   64
  3
--------        -        -------
 72
   65
 73
    0
 40
0
  0
LTYPE
  2
DASHDOTX2
 70
   64
  3
--------        -        -------
 72
   65
 73
    0
 40
0
  0
LTYPE
  2
DASHED
 70
   64
  3
------     -----------     -----
 72
   65
 73
    0
 40
0
  0
LTYPE
  2
DASHED2_27
 70
   64
  3
------     -----------     -----
 72
   65
 73
    0
 40
0
  0
LTYPE
  2
DASHEDX2
 70
   64
  3
------     -----------     -----
 72
   65
 73
    0
 40
0
  0
LTYPE
  2
DIVIDE
 70
   64
  3
------      -      -      ------
 72
   65
 73
    0
 40
0
  0
LTYPE
  2
DIVIDE2
 70
   64
  3
------      -      -      ------
 72
   65
 73
    0
 40
0
  0
LTYPE
  2
DIVIDEX2
 70
   64
  3
------      -      -      ------
 72
   65
 73
    0
 40
0
  0
LTYPE
  2
DOT_32
 70
   64
  3
-               -               
 72
   65
 73
    0
 40
0
  0
ENDTAB
  0
TABLE
  2
STYLE
  5
3
100
AcDbSymbolTable
 70
     1
  0
STYLE
  5
10
100
AcDbSymbolTableRecord
100
AcDbTextStyleTableRecord
  2
STANDARD
 70
     0
 40
0.0
 41
1.0
 50
0.0
 71
     0
 42
0.2
  3
txt
  4
bigfont.shx
  0
STYLE
  5
26
100
AcDbSymbolTableRecord
100
AcDbTextStyleTableRecord
  2
TATEGAKI
 70
    68
 40
0.0
 41
1.0
 50
0.0
 71
     0
 42
1.0
  3
txt
  4
bigfont.shx
  0
ENDTAB
  0
TABLE
  2
LAYER
 70
    2
  0
LAYER
  2
_0-0_0
 70
   64
 62
    7
  6
CONTINUOUS
  0
LAYER
  2
ADD_LINE
 70
   64
 62
    7
  6
CONTINUOUS
  0
ENDTAB
  0
ENDSEC
  0
SECTION
  2
BLOCKS
  0
ENDSEC
  0
SECTION
  2
ENTITIES
  0
ARC
  8
_0-0_0
  6
CONTINUOUS
 62
    7
 10
217.439367
 20
175.71740399999999
 40
5.8700340000000004
 50
115.24942900000001
 51
181.24590000000001
  0
ARC
  8
_0-0_0
  6
CONTINUOUS
 62
    7
 10
211.08620200000001
 20
173.35978399999999
 40
2.2820209999999999
 50
296.19068900000008
 51
77.741698000000028
  0
ARC
  8
_0-0_0
  6
CONTINUOUS
 62
    7
 10
212.33805799999999
 20
169.83539999999999
 40
1.4967870000000001
 50
99.407686999999996
 51
186.877486
  0
ARC
  8
_0-0_0
  6
CONTINUOUS
 62
    7
 10
212.99049500000001
 20
167.79185200000001
 40
3.411581
 50
146.87506300000001
 51
245.91888500000002
  0
LINE
  8
_0-0_0
  6
CONTINUOUS
 62
    7
 10
214.93544500000002
 20
181.02661599999999
 11
214.93544500000002
 21
183.48392899999999
  0
LINE
  8
_0-0_0
  6
CONTINUOUS
 62
    7
 10
194.56714399999998
 20
183.48392899999999
 11
214.93544500000002
 21
183.48392899999999
  0
LINE
  8
_0-0_0
  6
CONTINUOUS
 62
    7
 10
194.56714399999998
 20
181.02661599999999
 11
214.93544500000002
 21
181.02661599999999
  0
LINE
  8
_0-0_0
  6
CONTINUOUS
 62
    7
 10
197.931871
 20
175.58977200000001
 11
211.570718
 21
175.58977200000001
  0
LINE
  8
_0-0_0
  6
CONTINUOUS
 62
    7
 10
197.90411900000001
 20
164.67718200000002
 11
211.598468
 21
164.67718200000002
  0
LINE
  8
_0-0_0
  6
CONTINUOUS
 62
    7
 10
196.26827
 20
161.57845
 11
213.234319
 21
161.57845
  0
LINE
  8
_0-0_0
  6
CONTINUOUS
 62
    7
 10
215.11299299999999
 20
158.80363199999999
 11
194.38959700000001
 21
158.80363199999999
  0
LINE
  8
_0-0_0
  6
CONTINUOUS
 62
    7
 10
194.351259
 20
155.003095
 11
215.15133
 21
155.003095
  0
LINE
  8
_0-0_0
  6
CONTINUOUS
 62
    7
 10
212.314256
 20
151.76420300000001
 11
197.188333
 21
151.76420300000001
  0
LINE
  8
_0-0_0
  6
CONTINUOUS
 62
    7
 10
197.40919300000002
 20
171.31205499999999
 11
212.09339499999999
 21
171.31205499999999
  0
LINE
  8
_0-0_0
  6
CONTINUOUS
 62
    7
 10
204.751295
 20
95.696803000000003
 11
213.751295
 21
95.696803000000003
  0
LINE
  8
_0-0_0
  6
CONTINUOUS
 62
    7
 10
213.751295
 20
95.696803000000003
 11
213.751295
 21
102.067026
  0
ARC
  8
_0-0_0
  6
CONTINUOUS
 62
    7
 10
211.02693299999999
 20
155.75382000000002
 40
4.1921629999999999
 50
287.883239
 51
349.68401999999998
  0
ARC
  8
_0-0_0
  6
CONTINUOUS
 62
    7
 10
214.777387
 20
156.89978500000001
 40
1.933198
 50
281.15318100000002
 51
80.002791000000002
  0
ARC
  8
_0-0_0
  6
CONTINUOUS
 62
    7
 10
212.05945
 20
158.75963300000001
 40
3.0538590000000001
 50
0.8255160000000001
 51
67.373860000000008
  0
ARC
  8
_0-0_0
  6
CONTINUOUS
 62
    7
 10
217.53835100000001
 20
165.83175399999999
 40
6.0510520000000003
 50
190.99973800000004
 51
224.66030300000003
  0
ARC
  8
_0-0_0
  6
CONTINUOUS
 62
    7
 10
213.314256
 20
103.067026
 40
1
 50
180.00000500000002
 51
270.00000100000005
  0
LINE
  8
_0-0_0
  6
CONTINUOUS
 62
    7
 10
212.314256
 20
103.067026
 11
212.314256
 21
151.76420300000001
  0
LINE
  8
_0-0_0
  6
CONTINUOUS
 62
    7
 10
204.751295
 20
95.696803000000003
 11
195.751295
 21
95.696803000000003
  0
LINE
  8
_0-0_0
  6
CONTINUOUS
 62
    7
 10
195.751295
 20
95.696803000000003
 11
195.751295
 21
102.067026
  0
ARC
  8
_0-0_0
  6
CONTINUOUS
 62
    7
 10
198.47565600000001
 20
155.75382000000002
 40
4.1921629999999999
 50
190.31598099999999
 51
252.11676199999999
  0
ARC
  8
_0-0_0
  6
CONTINUOUS
 62
    7
 10
194.725202
 20
156.89978500000001
 40
1.933198
 50
99.997214
 51
258.84682099999998
  0
ARC
  8
_0-0_0
  6
CONTINUOUS
 62
    7
 10
197.44314
 20
158.75963300000001
 40
3.0538590000000001
 50
112.626138
 51
179.17448099999999
  0
ARC
  8
_0-0_0
  6
CONTINUOUS
 62
    7
 10
191.96423899999999
 20
165.83175399999999
 40
6.0510520000000003
 50
315.339698
 51
349.00026400000002
  0
ARC
  8
_0-0_0
  6
CONTINUOUS
 62
    7
 10
196.188333
 20
103.067026
 40
1
 50
270.000001
 51
0
  0
LINE
  8
_0-0_0
  6
CONTINUOUS
 62
    7
 10
197.188333
 20
103.067026
 11
197.188333
 21
151.76420300000001
  0
ARC
  8
_0-0_0
  6
CONTINUOUS
 62
    7
 10
204.751295
 20
200.69680399999999
 40
20
 50
300.61105099999997
 51
239.38895100000002
  0
ARC
  8
_0-0_0
  6
CONTINUOUS
 62
    7
 10
192.06322299999999
 20
175.71740399999999
 40
5.8700340000000004
 50
358.75410199999999
 51
64.750568999999956
  0
ARC
  8
_0-0_0
  6
CONTINUOUS
 62
    7
 10
198.41638699999999
 20
173.35978399999999
 40
2.2820209999999999
 50
102.25830000000001
 51
243.80931200000003
  0
ARC
  8
_0-0_0
  6
CONTINUOUS
 62
    7
 10
197.16453300000001
 20
169.83539999999999
 40
1.4967870000000001
 50
353.122501
 51
80.592319000000046
  0
ARC
  8
_0-0_0
  6
CONTINUOUS
 62
    7
 10
196.51209399999999
 20
167.79185200000001
 40
3.411581
 50
294.08111700000001
 51
33.124938999999976
  0
LINE
  8
_0-0_0
  6
CONTINUOUS
 62
    7
 10
194.56714399999998
 20
181.02661599999999
 11
194.56714399999998
 21
183.48392899999999
  0
LINE
  8
_0-0_0
  6
CONTINUOUS
 62
    7
 10
210.85204117236984
 20
169.65616299999999
 11
198.6505497869629
 21
169.65616299999999
  0
LINE
  8
_0-0_0
  6
CONTINUOUS
 62
    7
 10
195.751295
 20
102.067026
 11
213.751295
 21
102.067026
  0
ENDSEC
  0
EOF
