  0
SECTION
  2
HEADER
  9
$ACADVER
  1
AC1009
  9
$INSBASE
 10
0
 20
0
 30
0
  9
$EXTMIN
 10
0
 20
0
  9
$EXTMAX
 10
297
 20
210
  9
$LIMMIN
 10
0
 20
0
  9
$LIMMAX
 10
297
 20
210
  9
$LTSCALE
 40
1
  0
ENDSEC
  0
SECTION
  2
TABLES
  0
TABLE
  2
LTYPE
 70
     9
  0
LTYPE
  2
CONTINUOUS
 70
    64
  3
実線
 72
    65
 73
     0
 40
0.0
  0
LTYPE
  2
DASHED1
 70
    64
  3
--  --  --  --  --  --  --  --  
 72
    65
 73
     2
 40
2.5
 49
1.25
 49
-1.25
  0
LTYPE
  2
DASHED2
 70
    64
  3
----    ----    ----    ----    
 72
    65
 73
     2
 40
5.0
 49
2.5
 49
-2.5
  0
LTYPE
  2
DASHED3
 70
    64
  3
------  ------  ------  ------  
 72
    65
 73
     2
 40
5.0
 49
3.75
 49
-1.25
  0
LTYPE
  2
CENTER1
 70
    64
  3
----- - ----- - ----- - ----- - 
 72
    65
 73
     4
 40
10.0
 49
6.25
 49
-1.25
 49
1.25
 49
-1.25
  0
LTYPE
  2
CENTER2
 70
    64
  3
----------  --  ----------  --  
 72
    65
 73
     4
 40
20.0
 49
12.5
 49
-2.5
 49
2.5
 49
-2.5
  0
LTYPE
  2
PHANTOM1
 70
    64
  3
--- - - --- - - --- - - --- - - 
 72
    65
 73
     6
 40
10.0
 49
3.25
 49
-1.25
 49
1.25
 49
-1.25
 49
1.25
 49
-1.25
  0
LTYPE
  2
PHANTOM2
 70
    64
  3
--------  -  -  --------  -  -  
 72
    65
 73
     6
 40
20.0
 49
10.0
 49
-2.5
 49
1.25
 49
-2.5
 49
1.25
 49
-2.5
  0
LTYPE
  2
DOT
 70
    64
  3
-   -   -   -   -   -   -   -   
 72
    65
 73
     2
 40
2.5
 49
0.625
 49
-1.875
  0
LTYPE
  2
DUMMY
 70
    64
  3
ダミー
 72
    65
 73
     0
 40
0.0
  0
LTYPE
  2
RAND1
 70
    64
  3
ランダム線1
 72
    65
 73
     4
 40
10.0
 49
1.0
 49
-2.0
 49
3.0
 49
-4.0
  0
LTYPE
  2
RAND2
 70
    64
  3
ランダム線2
 72
    65
 73
     4
 40
14.0
 49
2.0
 49
-3.0
 49
4.0
 49
-5.0
  0
LTYPE
  2
RAND3
 70
    64
  3
ランダム線3
 72
    65
 73
     4
 40
18.0
 49
3.0
 49
-4.0
 49
5.0
 49
-6.0
  0
LTYPE
  2
RAND4
 70
    64
  3
ランダム線4
 72
    65
 73
     4
 40
22.0
 49
4.0
 49
-5.0
 49
6.0
 49
-7.0
  0
LTYPE
  2
RAND5
 70
    64
  3
ランダム線5
 72
    65
 73
     4
 40
26.0
 49
5.0
 49
-6.0
 49
7.0
 49
-8.0
  0
LTYPE
  2
LONG1
 70
    64
  3
----------  --  ----------  --  
 72
    65
 73
     4
 40
40.0
 49
32.5
 49
-2.5
 49
2.5
 49
-2.5
  0
LTYPE
  2
LONG2
 70
    64
  3
--------  -  -  --------  -  -  
 72
    65
 73
     6
 40
40.0
 49
30.0
 49
-2.5
 49
1.25
 49
-2.5
 49
1.25
 49
-2.5
  0
LTYPE
  2
LONG3
 70
    64
  3
+++++++++++++++..+++++++++++++++
 72
    65
 73
     2
 40
40.0
 49
37.5
 49
-2.5
  0
LTYPE
  2
LONG4
 70
    64
  3
+++++++++++++++..+++++++++++++++
 72
    65
 73
     2
 40
80.0
 49
75.0
 49
-5.0
  0
LTYPE
  2
LONG5
 70
    64
  3
----------  --  ----------  --  
 72
    65
 73
     4
 40
60.0
 49
37.5
 49
-7.5
 49
7.5
 49
-7.5
  0
LTYPE
  2
dashed
 70
   64
  3
-------   -------------   ------
 72
   65
 73
    2
 40
7.5
 49
6
 49
-1.5
  0
LTYPE
  2
dashed_spaced
 70
   64
  3
----        --------        ----
 72
   65
 73
    2
 40
12
 49
6
 49
-6
  0
LTYPE
  2
long_dashed_dotted
 70
   64
  3
------------- --- --------------
 72
   65
 73
    4
 40
15.25
 49
12
 49
-1.5
 49
0.25
 49
-1.5
  0
LTYPE
  2
long_dashed_double-dotted
 70
   64
  3
----------- --- --- ------------
 72
   65
 73
    6
 40
17
 49
12
 49
-1.5
 49
0.25
 49
-1.5
 49
0.25
 49
-1.5
  0
LTYPE
  2
long_dashed_triplicate-dotted
 70
   64
  3
--------- --- --- --- ----------
 72
   65
 73
    8
 40
18.75
 49
12
 49
-1.5
 49
0.25
 49
-1.5
 49
0.25
 49
-1.5
 49
0.25
 49
-1.5
  0
LTYPE
  2
dotted
 70
   64
  3
   -       -       -       -    
 72
   65
 73
    2
 40
1.75
 49
0.25
 49
-1.5
  0
LTYPE
  2
chain
 70
   64
  3
-------------- -- --------------
 72
   65
 73
    4
 40
18.5
 49
12
 49
-1.5
 49
3.5
 49
-1.5
  0
LTYPE
  2
chain_double_dash
 70
   64
  3
------------ -- -- -------------
 72
   65
 73
    6
 40
23.5
 49
12
 49
-1.5
 49
3.5
 49
-1.5
 49
3.5
 49
-1.5
  0
LTYPE
  2
dashed_dotted
 70
   64
  3
-----------     -     ----------
 72
   65
 73
    4
 40
9.25
 49
6
 49
-1.5
 49
0.25
 49
-1.5
  0
LTYPE
  2
double-dashed_dotted
 70
   64
  3
------   -----------   -   -----
 72
   65
 73
    6
 40
16.75
 49
6
 49
-1.5
 49
6
 49
-1.5
 49
0.25
 49
-1.5
  0
LTYPE
  2
dashed_double-dotted
 70
   64
  3
---------    -    -    ---------
 72
   65
 73
    6
 40
11
 49
6
 49
-1.5
 49
0.25
 49
-1.5
 49
0.25
 49
-1.5
  0
LTYPE
  2
double-dashed_double-dotted
 70
   64
  3
-----   ---------   -   -   ----
 72
   65
 73
    8
 40
18.5
 49
6
 49
-1.5
 49
6
 49
-1.5
 49
0.25
 49
-1.5
 49
0.25
 49
-1.5
  0
LTYPE
  2
dashed_triplicate-dotted
 70
   64
  3
-------    -    -    -    ------
 72
   65
 73
    8
 40
12.75
 49
6
 49
-1.5
 49
0.25
 49
-1.5
 49
0.25
 49
-1.5
 49
0.25
 49
-1.5
  0
LTYPE
  2
double-dashed_triplicate-dotted
 70
   64
  3
-----  ---------  -  -  -  -----
 72
   65
 73
   10
 40
20.25
 49
6
 49
-1.5
 49
6
 49
-1.5
 49
0.25
 49
-1.5
 49
0.25
 49
-1.5
 49
0.25
 49
-1.5
  0
LTYPE
  2
undefined
 70
   64
  3
--------------------------------
 72
   65
 73
    0
 40
0
  0
LTYPE
  2
BORDER
 70
   64
  3
----     --------     -     ----
 72
   65
 73
    6
 40
1.76
 49
0.5
 49
-0.25
 49
0.5
 49
-0.25
 49
0.01
 49
-0.25
  0
LTYPE
  2
BORDER2
 70
   64
  3
----     --------     -     ----
 72
   65
 73
    6
 40
0.885
 49
0.25
 49
-0.125
 49
0.25
 49
-0.125
 49
0.01
 49
-0.125
  0
LTYPE
  2
BORDERX2
 70
   64
  3
----     --------     -     ----
 72
   65
 73
    6
 40
3.5099999999999998
 49
1
 49
-0.5
 49
1
 49
-0.5
 49
0.01
 49
-0.5
  0
LTYPE
  2
CENTER
 70
   64
  3
----------    ----    ----------
 72
   65
 73
    4
 40
2
 49
1.25
 49
-0.25
 49
0.25
 49
-0.25
  0
LTYPE
  2
CENTER2_21
 70
   64
  3
----------    ----    ----------
 72
   65
 73
    4
 40
1.125
 49
0.75
 49
-0.125
 49
0.125
 49
-0.125
  0
LTYPE
  2
CENTERX2
 70
   64
  3
----------    ----    ----------
 72
   65
 73
    4
 40
4
 49
2.5
 49
-0.5
 49
0.5
 49
-0.5
  0
LTYPE
  2
DASHDOT
 70
   64
  3
--------        -        -------
 72
   65
 73
    4
 40
1.01
 49
0.5
 49
-0.25
 49
0.01
 49
-0.25
  0
LTYPE
  2
DASHDOT2
 70
   64
  3
--------        -        -------
 72
   65
 73
    4
 40
0.51
 49
0.25
 49
-0.125
 49
0.01
 49
-0.125
  0
LTYPE
  2
DASHDOTX2
 70
   64
  3
--------        -        -------
 72
   65
 73
    4
 40
2.0099999999999998
 49
1
 49
-0.5
 49
0.01
 49
-0.5
  0
LTYPE
  2
DASHED
 70
   64
  3
------     -----------     -----
 72
   65
 73
    2
 40
0.75
 49
0.5
 49
-0.25
  0
LTYPE
  2
DASHED2_27
 70
   64
  3
------     -----------     -----
 72
   65
 73
    2
 40
0.375
 49
0.25
 49
-0.125
  0
LTYPE
  2
DASHEDX2
 70
   64
  3
------     -----------     -----
 72
   65
 73
    2
 40
1.5
 49
1
 49
-0.5
  0
LTYPE
  2
DIVIDE
 70
   64
  3
------      -      -      ------
 72
   65
 73
    6
 40
1.27
 49
0.5
 49
-0.25
 49
0.01
 49
-0.25
 49
0.01
 49
-0.25
  0
LTYPE
  2
DIVIDE2
 70
   64
  3
------      -      -      ------
 72
   65
 73
    6
 40
0.645
 49
0.25
 49
-0.125
 49
0.01
 49
-0.125
 49
0.01
 49
-0.125
  0
LTYPE
  2
DIVIDEX2
 70
   64
  3
------      -      -      ------
 72
   65
 73
    6
 40
2.5199999999999996
 49
1
 49
-0.5
 49
0.01
 49
-0.5
 49
0.01
 49
-0.5
  0
LTYPE
  2
DOT_32
 70
   64
  3
-               -               
 72
   65
 73
    2
 40
0.26
 49
0.01
 49
-0.25
  0
ENDTAB
  0
TABLE
  2
STYLE
  5
3
100
AcDbSymbolTable
 70
     1
  0
STYLE
  5
10
100
AcDbSymbolTableRecord
100
AcDbTextStyleTableRecord
  2
STANDARD
 70
     0
 40
0.0
 41
1.0
 50
0.0
 71
     0
 42
0.2
  3
txt
  4
bigfont.shx
  0
STYLE
  5
26
100
AcDbSymbolTableRecord
100
AcDbTextStyleTableRecord
  2
TATEGAKI
 70
    68
 40
0.0
 41
1.0
 50
0.0
 71
     0
 42
1.0
  3
txt
  4
bigfont.shx
  0
ENDTAB
  0
TABLE
  2
LAYER
 70
    2
  0
LAYER
  2
_0-4_P-6853
 70
   64
 62
    7
  6
CONTINUOUS
  0
LAYER
  2
ADD_LINE
 70
   64
 62
    7
  6
CONTINUOUS
  0
ENDTAB
  0
ENDSEC
  0
SECTION
  2
BLOCKS
  0
ENDSEC
  0
SECTION
  2
ENTITIES
  0
LINE
  8
_0-4_P-6853
  6
CONTINUOUS
 62
    7
 10
207.20153410656843
 20
144.99999999999997
 11
212.70153410656843
 21
144.99999999999997
  0
LINE
  8
_0-4_P-6853
  6
CONTINUOUS
 62
    7
 10
213.20153410656835
 20
144.49999999999997
 11
213.20153410656835
 21
104.99999999999991
  0
ARC
  8
_0-4_P-6853
  6
CONTINUOUS
 62
    7
 10
231.61596355542963
 20
155.46888835719463
 40
21.433798630193589
 50
210.7809083629005
 51
242.8683293841143
  0
LINE
  8
_0-4_P-6853
  6
CONTINUOUS
 62
    7
 10
222.20153410656835
 20
135.91359576400086
 11
222.20153410656835
 21
134.2963347934016
  0
ARC
  8
_0-4_P-6853
  6
CONTINUOUS
 62
    7
 10
232.03465361561015
 20
142.22588501291281
 40
13.146532186766089
 50
221.58576753195391
 51
248.43019207089833
  0
LINE
  8
_0-4_P-6853
  6
CENTER2
 62
    1
 10
229.48669350243944
 20
104.99999999999997
 11
205.49867411430574
 21
104.99999999999997
  0
LINE
  8
_0-4_P-6853
  6
CONTINUOUS
 62
    7
 10
207.20153410656843
 20
144.99999999999997
 11
207.20153410656837
 21
104.99999999999994
  0
LINE
  8
_0-4_P-6853
  6
CONTINUOUS
 62
    7
 10
222.20153410656835
 20
134.2963347934016
 11
222.20153410656835
 21
104.99999999999997
  0
LINE
  8
_0-4_P-6853
  6
CONTINUOUS
 62
    7
 10
227.20153410656584
 20
130.00000000000003
 11
227.20153410657875
 21
104.99999999999997
  0
LINE
  8
_0-4_P-6853
  6
DASHED3
 62
    4
 10
227.20153410659165
 20
125.50000000000003
 11
225.03406148092475
 21
125.50000000000003
  0
ARC
  8
_0-4_P-6853
  6
CONTINUOUS
 62
    7
 10
212.70153410656843
 20
144.49999999999997
 40
0.5
 50
0
 51
90
  0
ARC
  8
_0-4_P-6853
  6
CONTINUOUS
 62
    7
 10
221.70153410656835
 20
135.91359576400086
 40
0.5
 50
0
 51
73.760542064462214
  0
LINE
  8
_0-4_P-6853
  6
DASHED3
 62
    4
 10
225.03406148092475
 20
125.50000000000003
 11
207.20153410656843
 21
141.95418640563068
  0
LINE
  8
_0-4_P-6853
  6
CONTINUOUS
 62
    7
 10
67.513306497560549
 20
145.00000000000003
 11
67.513306497560549
 21
65.000000000000028
  0
LINE
  8
_0-4_P-6853
  6
CONTINUOUS
 62
    7
 10
147.51330649756056
 20
65.000000000000028
 11
147.51330649756056
 21
145.00000000000003
  0
LINE
  8
_0-4_P-6853
  6
CONTINUOUS
 62
    7
 10
67.513306497560549
 20
65.000000000000028
 11
147.51330649756056
 21
65.000000000000028
  0
LINE
  8
_0-4_P-6853
  6
CONTINUOUS
 62
    7
 10
67.513306497560549
 20
145.00000000000003
 11
147.51330649756056
 21
145.00000000000003
  0
LINE
  8
_0-4_P-6853
  6
CONTINUOUS
 62
    7
 10
79.013306497560549
 20
76.500000000000028
 11
79.013306497560549
 21
133.50000000000003
  0
LINE
  8
_0-4_P-6853
  6
CONTINUOUS
 62
    7
 10
136.01330649756056
 20
76.500000000000028
 11
136.01330649756056
 21
133.50000000000003
  0
LINE
  8
_0-4_P-6853
  6
CONTINUOUS
 62
    7
 10
136.01330649756056
 20
133.50000000000003
 11
79.013306497560549
 21
133.50000000000003
  0
LINE
  8
_0-4_P-6853
  6
CONTINUOUS
 62
    7
 10
136.01330649756056
 20
76.500000000000028
 11
79.013306497560549
 21
76.500000000000028
  0
LINE
  8
_0-4_P-6853
  6
CONTINUOUS
 62
    7
 10
147.51330649756056
 20
145.00000000000003
 11
128.01330649756056
 21
125.50000000000003
  0
LINE
  8
_0-4_P-6853
  6
CONTINUOUS
 62
    7
 10
67.513306497560549
 20
145.00000000000003
 11
87.013306497560549
 21
125.50000000000003
  0
LINE
  8
_0-4_P-6853
  6
CONTINUOUS
 62
    7
 10
67.513306497560549
 20
65.000000000000028
 11
87.013306497560549
 21
84.5
  0
LINE
  8
_0-4_P-6853
  6
CONTINUOUS
 62
    7
 10
128.01330649756056
 20
84.5
 11
147.51330649756056
 21
65.000000000000028
  0
LINE
  8
_0-4_P-6853
  6
CENTER2
 62
    1
 10
107.51330649756055
 20
113.40001611124708
 11
107.51330649756055
 21
98.161942089859281
  0
LINE
  8
_0-4_P-6853
  6
CENTER2
 62
    1
 10
100.69339818575672
 20
105.00000000000003
 11
114.94912853926694
 21
105.00000000000003
  0
LINE
  8
_0-4_P-6853
  6
CONTINUOUS
 62
    7
 10
132.51330649756056
 20
80.000000000000028
 11
132.51330649756056
 21
130.00000000000003
  0
LINE
  8
_0-4_P-6853
  6
CONTINUOUS
 62
    7
 10
132.51330649756056
 20
130.00000000000003
 11
82.513306497560549
 21
130.00000000000003
  0
LINE
  8
_0-4_P-6853
  6
CONTINUOUS
 62
    7
 10
82.513306497560549
 20
80.000000000000028
 11
82.513306497560549
 21
130.00000000000003
  0
LINE
  8
_0-4_P-6853
  6
CONTINUOUS
 62
    7
 10
132.51330649756056
 20
80.000000000000028
 11
82.513306497560549
 21
80.000000000000028
  0
LINE
  8
_0-4_P-6853
  6
CONTINUOUS
 62
    7
 10
138.51330649756056
 20
136.00000000000003
 11
76.513306497560549
 21
136.00000000000003
  0
LINE
  8
_0-4_P-6853
  6
CONTINUOUS
 62
    7
 10
76.513306497560549
 20
136.00000000000003
 11
76.513306497560549
 21
74.000000000000028
  0
LINE
  8
_0-4_P-6853
  6
CONTINUOUS
 62
    7
 10
76.513306497560549
 20
74.000000000000028
 11
138.51330649756056
 21
74.000000000000028
  0
LINE
  8
_0-4_P-6853
  6
CONTINUOUS
 62
    7
 10
138.51330649756056
 20
74.000000000000028
 11
138.51330649756056
 21
136.00000000000003
  0
LINE
  8
_0-4_P-6853
  6
CONTINUOUS
 62
    7
 10
207.20153410656843
 20
64.999999999999972
 11
212.70153410656843
 21
64.999999999999972
  0
LINE
  8
_0-4_P-6853
  6
CONTINUOUS
 62
    7
 10
213.20153410656835
 20
65.499999999999972
 11
213.20153410656835
 21
105.00000000000003
  0
ARC
  8
_0-4_P-6853
  6
CONTINUOUS
 62
    7
 10
231.61596355542954
 20
54.531111642805307
 40
21.433798630193579
 50
117.13167061588571
 51
149.21909163709932
  0
LINE
  8
_0-4_P-6853
  6
CONTINUOUS
 62
    7
 10
222.20153410656835
 20
74.086404235999083
 11
222.20153410656835
 21
75.703665206598345
  0
ARC
  8
_0-4_P-6853
  6
CONTINUOUS
 62
    7
 10
232.03465361561015
 20
67.774114987087145
 40
13.14653218676607
 50
111.5698079291018
 51
138.41423246804609
  0
LINE
  8
_0-4_P-6853
  6
CONTINUOUS
 62
    7
 10
207.20153410656843
 20
64.999999999999972
 11
207.20153410656837
 21
105
  0
LINE
  8
_0-4_P-6853
  6
CONTINUOUS
 62
    7
 10
222.20153410656835
 20
75.703665206598345
 11
222.20153410656835
 21
104.99999999999997
  0
LINE
  8
_0-4_P-6853
  6
CONTINUOUS
 62
    7
 10
227.20153410656584
 20
79.999999999999915
 11
227.20153410657875
 21
104.99999999999997
  0
LINE
  8
_0-4_P-6853
  6
DASHED3
 62
    4
 10
227.20153410656815
 20
84.5
 11
225.03406148090124
 21
84.5
  0
ARC
  8
_0-4_P-6853
  6
CONTINUOUS
 62
    7
 10
212.70153410656843
 20
65.499999999999972
 40
0.5
 50
270
 51
0
  0
ARC
  8
_0-4_P-6853
  6
CONTINUOUS
 62
    7
 10
221.70153410656835
 20
74.086404235999083
 40
0.5
 50
286.23945793553776
 51
0
  0
LINE
  8
_0-4_P-6853
  6
DASHED3
 62
    4
 10
225.03406148090124
 20
84.5
 11
207.20153410656843
 21
68.045813594369264
  0
LINE
  8
_0-4_P-6853
  6
DASHED3
 62
    4
 10
225.03406148092475
 20
125.50000000000003
 11
225.03406148090124
 21
84.5
  0
LINE
  8
_0-4_P-6853
  6
CONTINUOUS
 62
    7
 10
128.01330649756056
 20
125.50000000000003
 11
87.013306497560549
 21
125.50000000000004
  0
LINE
  8
_0-4_P-6853
  6
CONTINUOUS
 62
    7
 10
87.013306497560549
 20
125.50000000000004
 11
87.013306497560563
 21
84.500000000000028
  0
LINE
  8
_0-4_P-6853
  6
CONTINUOUS
 62
    7
 10
87.013306497560563
 20
84.500000000000028
 11
128.01330649756056
 21
84.5
  0
LINE
  8
_0-4_P-6853
  6
CONTINUOUS
 62
    7
 10
128.01330649756056
 20
84.5
 11
128.01330649756056
 21
125.50000000000003
  0
ENDSEC
  0
EOF
