  0
SECTION
  2
HEADER
  9
$ACADVER
  1
AC1009
  9
$INSBASE
 10
0
 20
0
 30
0
  9
$EXTMIN
 10
0
 20
0
  9
$EXTMAX
 10
420
 20
297
  9
$LIMMIN
 10
0
 20
0
  9
$LIMMAX
 10
420
 20
297
  9
$LTSCALE
 40
1
  0
ENDSEC
  0
SECTION
  2
TABLES
  0
TABLE
  2
LTYPE
 70
     9
  0
LTYPE
  2
CONTINUOUS
 70
    64
  3
実線
 72
    65
 73
     0
 40
0.0
  0
LTYPE
  2
DASHED1
 70
    64
  3
--  --  --  --  --  --  --  --  
 72
    65
 73
     2
 40
2.5
 49
1.25
 49
-1.25
  0
LTYPE
  2
DASHED2
 70
    64
  3
----    ----    ----    ----    
 72
    65
 73
     2
 40
5.0
 49
2.5
 49
-2.5
  0
LTYPE
  2
DASHED3
 70
    64
  3
------  ------  ------  ------  
 72
    65
 73
     2
 40
5.0
 49
3.75
 49
-1.25
  0
LTYPE
  2
CENTER1
 70
    64
  3
----- - ----- - ----- - ----- - 
 72
    65
 73
     4
 40
10.0
 49
6.25
 49
-1.25
 49
1.25
 49
-1.25
  0
LTYPE
  2
CENTER2
 70
    64
  3
----------  --  ----------  --  
 72
    65
 73
     4
 40
20.0
 49
12.5
 49
-2.5
 49
2.5
 49
-2.5
  0
LTYPE
  2
PHANTOM1
 70
    64
  3
--- - - --- - - --- - - --- - - 
 72
    65
 73
     6
 40
10.0
 49
3.25
 49
-1.25
 49
1.25
 49
-1.25
 49
1.25
 49
-1.25
  0
LTYPE
  2
PHANTOM2
 70
    64
  3
--------  -  -  --------  -  -  
 72
    65
 73
     6
 40
20.0
 49
10.0
 49
-2.5
 49
1.25
 49
-2.5
 49
1.25
 49
-2.5
  0
LTYPE
  2
DOT
 70
    64
  3
-   -   -   -   -   -   -   -   
 72
    65
 73
     2
 40
2.5
 49
0.625
 49
-1.875
  0
LTYPE
  2
DUMMY
 70
    64
  3
ダミー
 72
    65
 73
     0
 40
0.0
  0
LTYPE
  2
RAND1
 70
    64
  3
ランダム線1
 72
    65
 73
     4
 40
10.0
 49
1.0
 49
-2.0
 49
3.0
 49
-4.0
  0
LTYPE
  2
RAND2
 70
    64
  3
ランダム線2
 72
    65
 73
     4
 40
14.0
 49
2.0
 49
-3.0
 49
4.0
 49
-5.0
  0
LTYPE
  2
RAND3
 70
    64
  3
ランダム線3
 72
    65
 73
     4
 40
18.0
 49
3.0
 49
-4.0
 49
5.0
 49
-6.0
  0
LTYPE
  2
RAND4
 70
    64
  3
ランダム線4
 72
    65
 73
     4
 40
22.0
 49
4.0
 49
-5.0
 49
6.0
 49
-7.0
  0
LTYPE
  2
RAND5
 70
    64
  3
ランダム線5
 72
    65
 73
     4
 40
26.0
 49
5.0
 49
-6.0
 49
7.0
 49
-8.0
  0
LTYPE
  2
LONG1
 70
    64
  3
----------  --  ----------  --  
 72
    65
 73
     4
 40
40.0
 49
32.5
 49
-2.5
 49
2.5
 49
-2.5
  0
LTYPE
  2
LONG2
 70
    64
  3
--------  -  -  --------  -  -  
 72
    65
 73
     6
 40
40.0
 49
30.0
 49
-2.5
 49
1.25
 49
-2.5
 49
1.25
 49
-2.5
  0
LTYPE
  2
LONG3
 70
    64
  3
+++++++++++++++..+++++++++++++++
 72
    65
 73
     2
 40
40.0
 49
37.5
 49
-2.5
  0
LTYPE
  2
LONG4
 70
    64
  3
+++++++++++++++..+++++++++++++++
 72
    65
 73
     2
 40
80.0
 49
75.0
 49
-5.0
  0
LTYPE
  2
LONG5
 70
    64
  3
----------  --  ----------  --  
 72
    65
 73
     4
 40
60.0
 49
37.5
 49
-7.5
 49
7.5
 49
-7.5
  0
LTYPE
  2
dashed
 70
   64
  3
-------   -------------   ------
 72
   65
 73
    2
 40
7.5
 49
6
 49
-1.5
  0
LTYPE
  2
dashed_spaced
 70
   64
  3
----        --------        ----
 72
   65
 73
    2
 40
12
 49
6
 49
-6
  0
LTYPE
  2
long_dashed_dotted
 70
   64
  3
------------- --- --------------
 72
   65
 73
    4
 40
15.25
 49
12
 49
-1.5
 49
0.25
 49
-1.5
  0
LTYPE
  2
long_dashed_double-dotted
 70
   64
  3
----------- --- --- ------------
 72
   65
 73
    6
 40
17
 49
12
 49
-1.5
 49
0.25
 49
-1.5
 49
0.25
 49
-1.5
  0
LTYPE
  2
long_dashed_triplicate-dotted
 70
   64
  3
--------- --- --- --- ----------
 72
   65
 73
    8
 40
18.75
 49
12
 49
-1.5
 49
0.25
 49
-1.5
 49
0.25
 49
-1.5
 49
0.25
 49
-1.5
  0
LTYPE
  2
dotted
 70
   64
  3
   -       -       -       -    
 72
   65
 73
    2
 40
1.75
 49
0.25
 49
-1.5
  0
LTYPE
  2
chain
 70
   64
  3
-------------- -- --------------
 72
   65
 73
    4
 40
18.5
 49
12
 49
-1.5
 49
3.5
 49
-1.5
  0
LTYPE
  2
chain_double_dash
 70
   64
  3
------------ -- -- -------------
 72
   65
 73
    6
 40
23.5
 49
12
 49
-1.5
 49
3.5
 49
-1.5
 49
3.5
 49
-1.5
  0
LTYPE
  2
dashed_dotted
 70
   64
  3
-----------     -     ----------
 72
   65
 73
    4
 40
9.25
 49
6
 49
-1.5
 49
0.25
 49
-1.5
  0
LTYPE
  2
double-dashed_dotted
 70
   64
  3
------   -----------   -   -----
 72
   65
 73
    6
 40
16.75
 49
6
 49
-1.5
 49
6
 49
-1.5
 49
0.25
 49
-1.5
  0
LTYPE
  2
dashed_double-dotted
 70
   64
  3
---------    -    -    ---------
 72
   65
 73
    6
 40
11
 49
6
 49
-1.5
 49
0.25
 49
-1.5
 49
0.25
 49
-1.5
  0
LTYPE
  2
double-dashed_double-dotted
 70
   64
  3
-----   ---------   -   -   ----
 72
   65
 73
    8
 40
18.5
 49
6
 49
-1.5
 49
6
 49
-1.5
 49
0.25
 49
-1.5
 49
0.25
 49
-1.5
  0
LTYPE
  2
dashed_triplicate-dotted
 70
   64
  3
-------    -    -    -    ------
 72
   65
 73
    8
 40
12.75
 49
6
 49
-1.5
 49
0.25
 49
-1.5
 49
0.25
 49
-1.5
 49
0.25
 49
-1.5
  0
LTYPE
  2
double-dashed_triplicate-dotted
 70
   64
  3
-----  ---------  -  -  -  -----
 72
   65
 73
   10
 40
20.25
 49
6
 49
-1.5
 49
6
 49
-1.5
 49
0.25
 49
-1.5
 49
0.25
 49
-1.5
 49
0.25
 49
-1.5
  0
LTYPE
  2
undefined
 70
   64
  3
--------------------------------
 72
   65
 73
    0
 40
0
  0
LTYPE
  2
BORDER
 70
   64
  3
----     --------     -     ----
 72
   65
 73
    6
 40
1.76
 49
0.5
 49
-0.25
 49
0.5
 49
-0.25
 49
0.01
 49
-0.25
  0
LTYPE
  2
BORDER2
 70
   64
  3
----     --------     -     ----
 72
   65
 73
    6
 40
0.885
 49
0.25
 49
-0.125
 49
0.25
 49
-0.125
 49
0.01
 49
-0.125
  0
LTYPE
  2
BORDERX2
 70
   64
  3
----     --------     -     ----
 72
   65
 73
    6
 40
3.5099999999999998
 49
1
 49
-0.5
 49
1
 49
-0.5
 49
0.01
 49
-0.5
  0
LTYPE
  2
CENTER
 70
   64
  3
----------    ----    ----------
 72
   65
 73
    4
 40
2
 49
1.25
 49
-0.25
 49
0.25
 49
-0.25
  0
LTYPE
  2
CENTER2_21
 70
   64
  3
----------    ----    ----------
 72
   65
 73
    4
 40
1.125
 49
0.75
 49
-0.125
 49
0.125
 49
-0.125
  0
LTYPE
  2
CENTERX2
 70
   64
  3
----------    ----    ----------
 72
   65
 73
    4
 40
4
 49
2.5
 49
-0.5
 49
0.5
 49
-0.5
  0
LTYPE
  2
DASHDOT
 70
   64
  3
--------        -        -------
 72
   65
 73
    4
 40
1.01
 49
0.5
 49
-0.25
 49
0.01
 49
-0.25
  0
LTYPE
  2
DASHDOT2
 70
   64
  3
--------        -        -------
 72
   65
 73
    4
 40
0.51
 49
0.25
 49
-0.125
 49
0.01
 49
-0.125
  0
LTYPE
  2
DASHDOTX2
 70
   64
  3
--------        -        -------
 72
   65
 73
    4
 40
2.0099999999999998
 49
1
 49
-0.5
 49
0.01
 49
-0.5
  0
LTYPE
  2
DASHED
 70
   64
  3
------     -----------     -----
 72
   65
 73
    2
 40
0.75
 49
0.5
 49
-0.25
  0
LTYPE
  2
DASHED2_27
 70
   64
  3
------     -----------     -----
 72
   65
 73
    2
 40
0.375
 49
0.25
 49
-0.125
  0
LTYPE
  2
DASHEDX2
 70
   64
  3
------     -----------     -----
 72
   65
 73
    2
 40
1.5
 49
1
 49
-0.5
  0
LTYPE
  2
DIVIDE
 70
   64
  3
------      -      -      ------
 72
   65
 73
    6
 40
1.27
 49
0.5
 49
-0.25
 49
0.01
 49
-0.25
 49
0.01
 49
-0.25
  0
LTYPE
  2
DIVIDE2
 70
   64
  3
------      -      -      ------
 72
   65
 73
    6
 40
0.645
 49
0.25
 49
-0.125
 49
0.01
 49
-0.125
 49
0.01
 49
-0.125
  0
LTYPE
  2
DIVIDEX2
 70
   64
  3
------      -      -      ------
 72
   65
 73
    6
 40
2.5199999999999996
 49
1
 49
-0.5
 49
0.01
 49
-0.5
 49
0.01
 49
-0.5
  0
LTYPE
  2
DOT_32
 70
   64
  3
-               -               
 72
   65
 73
    2
 40
0.26
 49
0.01
 49
-0.25
  0
ENDTAB
  0
TABLE
  2
STYLE
  5
3
100
AcDbSymbolTable
 70
     1
  0
STYLE
  5
10
100
AcDbSymbolTableRecord
100
AcDbTextStyleTableRecord
  2
STANDARD
 70
     0
 40
0.0
 41
1.0
 50
0.0
 71
     0
 42
0.2
  3
txt
  4
bigfont.shx
  0
STYLE
  5
26
100
AcDbSymbolTableRecord
100
AcDbTextStyleTableRecord
  2
TATEGAKI
 70
    68
 40
0.0
 41
1.0
 50
0.0
 71
     0
 42
1.0
  3
txt
  4
bigfont.shx
  0
ENDTAB
  0
TABLE
  2
LAYER
 70
    2
  0
LAYER
  2
_0-0_0
 70
   64
 62
    7
  6
CONTINUOUS
  0
LAYER
  2
ADD_LINE
 70
   64
 62
    7
  6
CONTINUOUS
  0
ENDTAB
  0
ENDSEC
  0
SECTION
  2
BLOCKS
  0
BLOCK
  2
-000-gre
 70
   64
 10
0
 20
0
 30
0
  0
LINE
  8
_0-0_0
  6
CONTINUOUS
 62
    7
 10
-51.746154494860697
 20
1015.8499578045089
 11
348.25384542513927
 21
1015.8499578045089
  0
LINE
  8
_0-0_0
  6
CONTINUOUS
 62
    7
 10
85.753845465139264
 20
1165.8499578045089
 11
210.75384546513931
 21
1165.8499578045089
  0
LINE
  8
_0-0_0
  6
CONTINUOUS
 62
    7
 10
-21.746154494860569
 20
1075.8499578045089
 11
-18.804978034860717
 21
1075.8499578045089
  0
ARC
  8
_0-0_0
  6
CONTINUOUS
 62
    7
 10
-18.804978034860717
 20
1095.8499578045089
 40
20
 50
270
 51
0
  0
LINE
  8
_0-0_0
  6
CONTINUOUS
 62
    7
 10
-51.746154494860697
 20
1015.8499578045089
 11
-51.746154494860697
 21
1045.8499578045089
  0
ARC
  8
_0-0_0
  6
CONTINUOUS
 62
    7
 10
-21.746154494860697
 20
1045.8499578045089
 40
30
 50
89.999999999999773
 51
180
  0
LINE
  8
_0-0_0
  6
CONTINUOUS
 62
    7
 10
1.1950219651392759
 20
1095.8499578045089
 11
1.1950219651392759
 21
1095.8499578045089
  0
ARC
  8
_0-0_0
  6
CONTINUOUS
 62
    7
 10
21.195021965139269
 20
1095.8499578045089
 40
20
 50
90.000000000000469
 51
180
  0
LINE
  8
_0-0_0
  6
CONTINUOUS
 62
    7
 10
48.253845485139273
 20
1135.8499578045089
 11
48.25384548513928
 21
1135.8499578045089
  0
ARC
  8
_0-0_0
  6
CONTINUOUS
 62
    7
 10
58.25384548513928
 20
1135.8499578045089
 40
10
 50
90
 51
180
  0
LINE
  8
_0-0_0
  6
CONTINUOUS
 62
    7
 10
85.753845465139264
 20
1165.8499578045089
 11
85.753845465139264
 21
1165.8499578045089
  0
LINE
  8
_0-0_0
  6
CONTINUOUS
 62
    7
 10
21.195021965139098
 20
1115.8499578045089
 11
28.25384548513933
 21
1115.8499578045089
  0
ARC
  8
_0-0_0
  6
CONTINUOUS
 62
    7
 10
28.253845485139266
 20
1135.8499578045089
 40
20
 50
270.00000000000023
 51
0
  0
LINE
  8
_0-0_0
  6
CONTINUOUS
 62
    7
 10
58.25384548513928
 20
1145.8499578045089
 11
65.753845465139193
 21
1145.8499578045089
  0
ARC
  8
_0-0_0
  6
CONTINUOUS
 62
    7
 10
65.753845465139278
 20
1165.8499578045089
 40
20
 50
269.99999999999977
 51
0.0000000000011937
  0
LINE
  8
_0-0_0
  6
CONTINUOUS
 62
    7
 10
318.25384542513916
 20
1075.8499578045089
 11
315.31266896513938
 21
1075.8499578045089
  0
ARC
  8
_0-0_0
  6
CONTINUOUS
 62
    7
 10
315.31266896513938
 20
1095.8499578045089
 40
20
 50
180
 51
270
  0
LINE
  8
_0-0_0
  6
CONTINUOUS
 62
    7
 10
348.25384542513927
 20
1015.8499578045089
 11
348.25384542513927
 21
1045.8499578045089
  0
ARC
  8
_0-0_0
  6
CONTINUOUS
 62
    7
 10
318.25384542513927
 20
1045.8499578045089
 40
30
 50
0.000000000000007
 51
90.000000000000199
  0
LINE
  8
_0-0_0
  6
CONTINUOUS
 62
    7
 10
295.31266896513927
 20
1095.8499578045089
 11
295.31266896513927
 21
1095.8499578045089
  0
ARC
  8
_0-0_0
  6
CONTINUOUS
 62
    7
 10
275.31266896513938
 20
1095.8499578045089
 40
20
 50
0.000000000000007
 51
89.999999999999602
  0
LINE
  8
_0-0_0
  6
CONTINUOUS
 62
    7
 10
248.2538454451394
 20
1135.8499578045089
 11
248.2538454451394
 21
1135.8499578045089
  0
ARC
  8
_0-0_0
  6
CONTINUOUS
 62
    7
 10
238.2538454451394
 20
1135.8499578045089
 40
10
 50
0.000000000000007
 51
90.000000000000014
  0
LINE
  8
_0-0_0
  6
CONTINUOUS
 62
    7
 10
210.75384546513931
 20
1165.8499578045089
 11
210.75384546513931
 21
1165.8499578045089
  0
LINE
  8
_0-0_0
  6
CONTINUOUS
 62
    7
 10
275.31266896513949
 20
1115.8499578045089
 11
268.25384544513929
 21
1115.8499578045089
  0
ARC
  8
_0-0_0
  6
CONTINUOUS
 62
    7
 10
268.25384544513929
 20
1135.8499578045089
 40
20
 50
180
 51
269.99999999999977
  0
LINE
  8
_0-0_0
  6
CONTINUOUS
 62
    7
 10
238.2538454451394
 20
1145.8499578045089
 11
230.75384546513939
 21
1145.8499578045089
  0
ARC
  8
_0-0_0
  6
CONTINUOUS
 62
    7
 10
230.75384546513931
 20
1165.8499578045089
 40
20
 50
179.99999999999883
 51
270.00000000000023
  0
LINE
  8
_0-0_0
  6
CONTINUOUS
 62
    7
 10
65.753845465139193
 20
1145.8499578045089
 11
230.75384546513931
 21
1145.8499578045089
  0
LINE
  8
_0-0_0
  6
CONTINUOUS
 62
    7
 10
28.253845485139667
 20
1115.8499578045089
 11
268.25384544513929
 21
1115.8499578045089
  0
LINE
  8
_0-0_0
  6
CONTINUOUS
 62
    7
 10
-18.804978034860717
 20
1075.8499578045089
 11
315.31266896513938
 21
1075.8499578045089
  0
LINE
  8
_0-0_0
  6
CONTINUOUS
 62
    7
 10
-51.746154494860697
 20
1045.8499578045089
 11
348.25384542513927
 21
1045.8499578045089
  0
LINE
  8
_0-0_0
  6
CONTINUOUS
 62
    7
 10
1.1950219651392759
 20
1095.8499578045089
 11
295.31266896513927
 21
1095.8499578045089
  0
LINE
  8
_0-0_0
  6
CONTINUOUS
 62
    7
 10
48.25384548513928
 20
1135.8499578045089
 11
248.2538454451394
 21
1135.8499578045089
  0
LINE
  8
_0-0_0
  6
CONTINUOUS
 62
    7
 10
85.349763407404751
 20
1161.8499578045089
 11
211.15792752287379
 21
1161.8499578045089
  0
ENDBLK
  0
BLOCK
  2
-001-dfgreerz
 70
   64
 10
0
 20
0
 30
0
  0
CIRCLE
  8
_0-0_0
  6
CONTINUOUS
 62
    7
 10
148.25384546513931
 20
722.63934217220037
 40
99.999999979999998
  0
CIRCLE
  8
_0-0_0
  6
CONTINUOUS
 62
    7
 10
148.25384546513931
 20
722.63934217220037
 40
147.05882349999999
  0
CIRCLE
  8
_0-0_0
  6
CONTINUOUS
 62
    7
 10
148.25384546513931
 20
722.63934217220037
 40
199.99999996
  0
CIRCLE
  8
_0-0_0
  6
CONTINUOUS
 62
    7
 10
148.25384546513931
 20
722.63934217220037
 40
70
  0
ENDBLK
  0
ENDSEC
  0
SECTION
  2
ENTITIES
  0
INSERT
  2
-000-gre
  8
_0-0_0
 10
195.1746702812589
 20
64.076081149492936
 41
0.1
 42
0.1
 50
0
  0
INSERT
  2
-001-dfgreerz
  8
_0-0_0
 10
195.1746702812589
 20
64.076081149492936
 41
0.1
 42
0.1
 50
0
  0
ENDSEC
  0
EOF
