  0
SECTION
  2
HEADER
  9
$ACADVER
  1
AC1009
  9
$INSBASE
 10
0
 20
0
 30
0
  9
$EXTMIN
 10
0
 20
0
  9
$EXTMAX
 10
420
 20
297
  9
$LIMMIN
 10
0
 20
0
  9
$LIMMAX
 10
420
 20
297
  9
$LTSCALE
 40
1
  0
ENDSEC
  0
SECTION
  2
TABLES
  0
TABLE
  2
LTYPE
 70
     9
  0
LTYPE
  2
CONTINUOUS
 70
    64
  3
実線
 72
    65
 73
     0
 40
0.0
  0
LTYPE
  2
DASHED1
 70
    64
  3
--  --  --  --  --  --  --  --  
 72
    65
 73
     2
 40
2.5
 49
1.25
 49
-1.25
  0
LTYPE
  2
DASHED2
 70
    64
  3
----    ----    ----    ----    
 72
    65
 73
     2
 40
5.0
 49
2.5
 49
-2.5
  0
LTYPE
  2
DASHED3
 70
    64
  3
------  ------  ------  ------  
 72
    65
 73
     2
 40
5.0
 49
3.75
 49
-1.25
  0
LTYPE
  2
CENTER1
 70
    64
  3
----- - ----- - ----- - ----- - 
 72
    65
 73
     4
 40
10.0
 49
6.25
 49
-1.25
 49
1.25
 49
-1.25
  0
LTYPE
  2
CENTER2
 70
    64
  3
----------  --  ----------  --  
 72
    65
 73
     4
 40
20.0
 49
12.5
 49
-2.5
 49
2.5
 49
-2.5
  0
LTYPE
  2
PHANTOM1
 70
    64
  3
--- - - --- - - --- - - --- - - 
 72
    65
 73
     6
 40
10.0
 49
3.25
 49
-1.25
 49
1.25
 49
-1.25
 49
1.25
 49
-1.25
  0
LTYPE
  2
PHANTOM2
 70
    64
  3
--------  -  -  --------  -  -  
 72
    65
 73
     6
 40
20.0
 49
10.0
 49
-2.5
 49
1.25
 49
-2.5
 49
1.25
 49
-2.5
  0
LTYPE
  2
DOT
 70
    64
  3
-   -   -   -   -   -   -   -   
 72
    65
 73
     2
 40
2.5
 49
0.625
 49
-1.875
  0
LTYPE
  2
DUMMY
 70
    64
  3
ダミー
 72
    65
 73
     0
 40
0.0
  0
LTYPE
  2
RAND1
 70
    64
  3
ランダム線1
 72
    65
 73
     4
 40
10.0
 49
1.0
 49
-2.0
 49
3.0
 49
-4.0
  0
LTYPE
  2
RAND2
 70
    64
  3
ランダム線2
 72
    65
 73
     4
 40
14.0
 49
2.0
 49
-3.0
 49
4.0
 49
-5.0
  0
LTYPE
  2
RAND3
 70
    64
  3
ランダム線3
 72
    65
 73
     4
 40
18.0
 49
3.0
 49
-4.0
 49
5.0
 49
-6.0
  0
LTYPE
  2
RAND4
 70
    64
  3
ランダム線4
 72
    65
 73
     4
 40
22.0
 49
4.0
 49
-5.0
 49
6.0
 49
-7.0
  0
LTYPE
  2
RAND5
 70
    64
  3
ランダム線5
 72
    65
 73
     4
 40
26.0
 49
5.0
 49
-6.0
 49
7.0
 49
-8.0
  0
LTYPE
  2
LONG1
 70
    64
  3
----------  --  ----------  --  
 72
    65
 73
     4
 40
40.0
 49
32.5
 49
-2.5
 49
2.5
 49
-2.5
  0
LTYPE
  2
LONG2
 70
    64
  3
--------  -  -  --------  -  -  
 72
    65
 73
     6
 40
40.0
 49
30.0
 49
-2.5
 49
1.25
 49
-2.5
 49
1.25
 49
-2.5
  0
LTYPE
  2
LONG3
 70
    64
  3
+++++++++++++++..+++++++++++++++
 72
    65
 73
     2
 40
40.0
 49
37.5
 49
-2.5
  0
LTYPE
  2
LONG4
 70
    64
  3
+++++++++++++++..+++++++++++++++
 72
    65
 73
     2
 40
80.0
 49
75.0
 49
-5.0
  0
LTYPE
  2
LONG5
 70
    64
  3
----------  --  ----------  --  
 72
    65
 73
     4
 40
60.0
 49
37.5
 49
-7.5
 49
7.5
 49
-7.5
  0
LTYPE
  2
dashed
 70
   64
  3
-------   -------------   ------
 72
   65
 73
    2
 40
7.5
 49
6
 49
-1.5
  0
LTYPE
  2
dashed_spaced
 70
   64
  3
----        --------        ----
 72
   65
 73
    2
 40
12
 49
6
 49
-6
  0
LTYPE
  2
long_dashed_dotted
 70
   64
  3
------------- --- --------------
 72
   65
 73
    4
 40
15.25
 49
12
 49
-1.5
 49
0.25
 49
-1.5
  0
LTYPE
  2
long_dashed_double-dotted
 70
   64
  3
----------- --- --- ------------
 72
   65
 73
    6
 40
17
 49
12
 49
-1.5
 49
0.25
 49
-1.5
 49
0.25
 49
-1.5
  0
LTYPE
  2
long_dashed_triplicate-dotted
 70
   64
  3
--------- --- --- --- ----------
 72
   65
 73
    8
 40
18.75
 49
12
 49
-1.5
 49
0.25
 49
-1.5
 49
0.25
 49
-1.5
 49
0.25
 49
-1.5
  0
LTYPE
  2
dotted
 70
   64
  3
   -       -       -       -    
 72
   65
 73
    2
 40
1.75
 49
0.25
 49
-1.5
  0
LTYPE
  2
chain
 70
   64
  3
-------------- -- --------------
 72
   65
 73
    4
 40
18.5
 49
12
 49
-1.5
 49
3.5
 49
-1.5
  0
LTYPE
  2
chain_double_dash
 70
   64
  3
------------ -- -- -------------
 72
   65
 73
    6
 40
23.5
 49
12
 49
-1.5
 49
3.5
 49
-1.5
 49
3.5
 49
-1.5
  0
LTYPE
  2
dashed_dotted
 70
   64
  3
-----------     -     ----------
 72
   65
 73
    4
 40
9.25
 49
6
 49
-1.5
 49
0.25
 49
-1.5
  0
LTYPE
  2
double-dashed_dotted
 70
   64
  3
------   -----------   -   -----
 72
   65
 73
    6
 40
16.75
 49
6
 49
-1.5
 49
6
 49
-1.5
 49
0.25
 49
-1.5
  0
LTYPE
  2
dashed_double-dotted
 70
   64
  3
---------    -    -    ---------
 72
   65
 73
    6
 40
11
 49
6
 49
-1.5
 49
0.25
 49
-1.5
 49
0.25
 49
-1.5
  0
LTYPE
  2
double-dashed_double-dotted
 70
   64
  3
-----   ---------   -   -   ----
 72
   65
 73
    8
 40
18.5
 49
6
 49
-1.5
 49
6
 49
-1.5
 49
0.25
 49
-1.5
 49
0.25
 49
-1.5
  0
LTYPE
  2
dashed_triplicate-dotted
 70
   64
  3
-------    -    -    -    ------
 72
   65
 73
    8
 40
12.75
 49
6
 49
-1.5
 49
0.25
 49
-1.5
 49
0.25
 49
-1.5
 49
0.25
 49
-1.5
  0
LTYPE
  2
double-dashed_triplicate-dotted
 70
   64
  3
-----  ---------  -  -  -  -----
 72
   65
 73
   10
 40
20.25
 49
6
 49
-1.5
 49
6
 49
-1.5
 49
0.25
 49
-1.5
 49
0.25
 49
-1.5
 49
0.25
 49
-1.5
  0
LTYPE
  2
undefined
 70
   64
  3
--------------------------------
 72
   65
 73
    0
 40
0
  0
LTYPE
  2
BORDER
 70
   64
  3
----     --------     -     ----
 72
   65
 73
    6
 40
1.76
 49
0.5
 49
-0.25
 49
0.5
 49
-0.25
 49
0.01
 49
-0.25
  0
LTYPE
  2
BORDER2
 70
   64
  3
----     --------     -     ----
 72
   65
 73
    6
 40
0.885
 49
0.25
 49
-0.125
 49
0.25
 49
-0.125
 49
0.01
 49
-0.125
  0
LTYPE
  2
BORDERX2
 70
   64
  3
----     --------     -     ----
 72
   65
 73
    6
 40
3.5099999999999998
 49
1
 49
-0.5
 49
1
 49
-0.5
 49
0.01
 49
-0.5
  0
LTYPE
  2
CENTER
 70
   64
  3
----------    ----    ----------
 72
   65
 73
    4
 40
2
 49
1.25
 49
-0.25
 49
0.25
 49
-0.25
  0
LTYPE
  2
CENTER2_21
 70
   64
  3
----------    ----    ----------
 72
   65
 73
    4
 40
1.125
 49
0.75
 49
-0.125
 49
0.125
 49
-0.125
  0
LTYPE
  2
CENTERX2
 70
   64
  3
----------    ----    ----------
 72
   65
 73
    4
 40
4
 49
2.5
 49
-0.5
 49
0.5
 49
-0.5
  0
LTYPE
  2
DASHDOT
 70
   64
  3
--------        -        -------
 72
   65
 73
    4
 40
1.01
 49
0.5
 49
-0.25
 49
0.01
 49
-0.25
  0
LTYPE
  2
DASHDOT2
 70
   64
  3
--------        -        -------
 72
   65
 73
    4
 40
0.51
 49
0.25
 49
-0.125
 49
0.01
 49
-0.125
  0
LTYPE
  2
DASHDOTX2
 70
   64
  3
--------        -        -------
 72
   65
 73
    4
 40
2.0099999999999998
 49
1
 49
-0.5
 49
0.01
 49
-0.5
  0
LTYPE
  2
DASHED
 70
   64
  3
------     -----------     -----
 72
   65
 73
    2
 40
0.75
 49
0.5
 49
-0.25
  0
LTYPE
  2
DASHED2_27
 70
   64
  3
------     -----------     -----
 72
   65
 73
    2
 40
0.375
 49
0.25
 49
-0.125
  0
LTYPE
  2
DASHEDX2
 70
   64
  3
------     -----------     -----
 72
   65
 73
    2
 40
1.5
 49
1
 49
-0.5
  0
LTYPE
  2
DIVIDE
 70
   64
  3
------      -      -      ------
 72
   65
 73
    6
 40
1.27
 49
0.5
 49
-0.25
 49
0.01
 49
-0.25
 49
0.01
 49
-0.25
  0
LTYPE
  2
DIVIDE2
 70
   64
  3
------      -      -      ------
 72
   65
 73
    6
 40
0.645
 49
0.25
 49
-0.125
 49
0.01
 49
-0.125
 49
0.01
 49
-0.125
  0
LTYPE
  2
DIVIDEX2
 70
   64
  3
------      -      -      ------
 72
   65
 73
    6
 40
2.5199999999999996
 49
1
 49
-0.5
 49
0.01
 49
-0.5
 49
0.01
 49
-0.5
  0
LTYPE
  2
DOT_32
 70
   64
  3
-               -               
 72
   65
 73
    2
 40
0.26
 49
0.01
 49
-0.25
  0
ENDTAB
  0
TABLE
  2
STYLE
  5
3
100
AcDbSymbolTable
 70
     1
  0
STYLE
  5
10
100
AcDbSymbolTableRecord
100
AcDbTextStyleTableRecord
  2
STANDARD
 70
     0
 40
0.0
 41
1.0
 50
0.0
 71
     0
 42
0.2
  3
txt
  4
bigfont.shx
  0
STYLE
  5
26
100
AcDbSymbolTableRecord
100
AcDbTextStyleTableRecord
  2
TATEGAKI
 70
    68
 40
0.0
 41
1.0
 50
0.0
 71
     0
 42
1.0
  3
txt
  4
bigfont.shx
  0
ENDTAB
  0
TABLE
  2
LAYER
 70
    2
  0
LAYER
  2
_0-0_0
 70
   64
 62
    7
  6
CONTINUOUS
  0
LAYER
  2
ADD_LINE
 70
   64
 62
    7
  6
CONTINUOUS
  0
ENDTAB
  0
ENDSEC
  0
SECTION
  2
BLOCKS
  0
BLOCK
  2
-000-fdgtrzz
 70
   64
 10
0
 20
0
 30
0
  0
LINE
  8
_0-0_0
  6
CONTINUOUS
 62
    7
 10
-268.47707055700465
 20
842.8822963534368
 11
211.52292934699537
 21
842.8822963534368
  0
LINE
  8
_0-0_0
  6
CONTINUOUS
 62
    7
 10
-232.47707055700448
 20
914.8822963534368
 11
-228.94765880500472
 21
914.8822963534368
  0
ARC
  8
_0-0_0
  6
CONTINUOUS
 62
    7
 10
-228.94765880500472
 20
938.8822963534368
 40
24
 50
270
 51
0
  0
LINE
  8
_0-0_0
  6
CONTINUOUS
 62
    7
 10
-268.47707055700465
 20
842.8822963534368
 11
-268.47707055700465
 21
878.8822963534368
  0
ARC
  8
_0-0_0
  6
CONTINUOUS
 62
    7
 10
-232.47707055700465
 20
878.8822963534368
 40
36
 50
89.99999999999973
 51
180
  0
LINE
  8
_0-0_0
  6
CONTINUOUS
 62
    7
 10
-204.94765880500472
 20
938.8822963534368
 11
-204.94765880500472
 21
938.8822963534368
  0
ARC
  8
_0-0_0
  6
CONTINUOUS
 62
    7
 10
-180.94765880500472
 20
938.8822963534368
 40
24
 50
90.000000000000568
 51
180
  0
LINE
  8
_0-0_0
  6
CONTINUOUS
 62
    7
 10
-148.47707058100465
 20
986.8822963534368
 11
-148.47707058100465
 21
986.8822963534368
  0
ARC
  8
_0-0_0
  6
CONTINUOUS
 62
    7
 10
-136.99520284914576
 20
982.65949475564878
 40
12.233778645462552
 50
87.572649031686751
 51
159.80748602027512
  0
LINE
  8
_0-0_0
  6
CONTINUOUS
 62
    7
 10
-180.94765880500489
 20
962.8822963534368
 11
-172.47707058100465
 21
962.8822963534368
  0
ARC
  8
_0-0_0
  6
CONTINUOUS
 62
    7
 10
-172.47707058100471
 20
986.8822963534368
 40
24
 50
270.00000000000011
 51
0
  0
LINE
  8
_0-0_0
  6
CONTINUOUS
 62
    7
 10
-136.47707058100465
 20
994.8822963534368
 11
-127.47707060500473
 21
994.8822963534368
  0
LINE
  8
_0-0_0
  6
CONTINUOUS
 62
    7
 10
175.5229293469952
 20
914.8822963534368
 11
171.99351759499544
 21
914.8822963534368
  0
ARC
  8
_0-0_0
  6
CONTINUOUS
 62
    7
 10
171.99351759499544
 20
938.8822963534368
 40
24
 50
180
 51
270
  0
LINE
  8
_0-0_0
  6
CONTINUOUS
 62
    7
 10
211.52292934699537
 20
842.8822963534368
 11
211.52292934699537
 21
878.8822963534368
  0
ARC
  8
_0-0_0
  6
CONTINUOUS
 62
    7
 10
175.52292934699537
 20
878.8822963534368
 40
36
 50
0
 51
90.000000000000114
  0
LINE
  8
_0-0_0
  6
CONTINUOUS
 62
    7
 10
147.99351759499535
 20
938.8822963534368
 11
147.99351759499535
 21
938.8822963534368
  0
ARC
  8
_0-0_0
  6
CONTINUOUS
 62
    7
 10
123.99351759499535
 20
938.8822963534368
 40
24
 50
0
 51
89.999999999999588
  0
LINE
  8
_0-0_0
  6
CONTINUOUS
 62
    7
 10
123.99351759499559
 20
962.8822963534368
 11
115.52292937099529
 21
962.8822963534368
  0
ARC
  8
_0-0_0
  6
CONTINUOUS
 62
    7
 10
115.52292937099536
 20
986.8822963534368
 40
24
 50
180
 51
269.99999999999977
  0
LINE
  8
_0-0_0
  6
CONTINUOUS
 62
    7
 10
-127.47707060500473
 20
994.8822963534368
 11
70.522929394995344
 21
994.8822963534368
  0
LINE
  8
_0-0_0
  6
CONTINUOUS
 62
    7
 10
-172.47707058100423
 20
962.8822963534368
 11
115.52292937099536
 21
962.8822963534368
  0
LINE
  8
_0-0_0
  6
CONTINUOUS
 62
    7
 10
-228.94765880500472
 20
914.8822963534368
 11
171.99351759499544
 21
914.8822963534368
  0
LINE
  8
_0-0_0
  6
CONTINUOUS
 62
    7
 10
-268.47707055700465
 20
878.8822963534368
 11
211.52292934699537
 21
878.8822963534368
  0
LINE
  8
_0-0_0
  6
CONTINUOUS
 62
    7
 10
-204.94765880500472
 20
938.8822963534368
 11
147.99351759499535
 21
938.8822963534368
  0
LINE
  8
_0-0_0
  6
CONTINUOUS
 62
    7
 10
-148.47707058100465
 20
986.8822963534368
 11
91.522929370995357
 21
986.8822963534368
  0
LINE
  8
_0-0_0
  6
CONTINUOUS
 62
    7
 10
91.5229293709952
 20
986.8822963534368
 11
91.5229293709952
 21
986.8822963534368
  0
ARC
  8
_0-0_0
  6
CONTINUOUS
 62
    7
 10
80.041061639136316
 20
982.65949475564878
 40
12.233778645462552
 50
20.192513979724868
 51
92.427350968313263
  0
LINE
  8
_0-0_0
  6
CONTINUOUS
 62
    7
 10
79.522929370995257
 20
994.8822963534368
 11
70.522929394995344
 21
994.8822963534368
  0
ENDBLK
  0
BLOCK
  2
-001-gtzrz
 70
   64
 10
0
 20
0
 30
0
  0
CIRCLE
  8
_0-0_0
  6
CONTINUOUS
 62
    7
 10
-28.477070605004737
 20
507.60096030524278
 40
119.999999976
  0
CIRCLE
  8
_0-0_0
  6
CONTINUOUS
 62
    7
 10
-28.477070605004737
 20
507.60096030524278
 40
176.47058820000001
  0
CIRCLE
  8
_0-0_0
  6
CONTINUOUS
 62
    7
 10
-28.477070605004737
 20
507.60096030524278
 40
239.999999952
  0
ENDBLK
  0
ENDSEC
  0
SECTION
  2
ENTITIES
  0
INSERT
  2
-000-fdgtrzz
  8
_0-0_0
 10
213.55633803618591
 20
69.592160997263122
 41
0.125
 42
0.125
 50
0
  0
INSERT
  2
-001-gtzrz
  8
_0-0_0
 10
213.55633803618591
 20
69.592160997263122
 41
0.125
 42
0.125
 50
0
  0
ENDSEC
  0
EOF
