  0
SECTION
  2
HEADER
  9
$ACADVER
  1
AC1009
  9
$INSBASE
 10
0
 20
0
 30
0
  9
$EXTMIN
 10
0
 20
0
  9
$EXTMAX
 10
420
 20
297
  9
$LIMMIN
 10
0
 20
0
  9
$LIMMAX
 10
420
 20
297
  9
$LTSCALE
 40
1
  0
ENDSEC
  0
SECTION
  2
TABLES
  0
TABLE
  2
LTYPE
 70
     9
  0
LTYPE
  2
CONTINUOUS
 70
    64
  3
実線
 72
    65
 73
     0
 40
0.0
  0
LTYPE
  2
DASHED1
 70
    64
  3
--  --  --  --  --  --  --  --  
 72
    65
 73
     2
 40
2.5
 49
1.25
 49
-1.25
  0
LTYPE
  2
DASHED2
 70
    64
  3
----    ----    ----    ----    
 72
    65
 73
     2
 40
5.0
 49
2.5
 49
-2.5
  0
LTYPE
  2
DASHED3
 70
    64
  3
------  ------  ------  ------  
 72
    65
 73
     2
 40
5.0
 49
3.75
 49
-1.25
  0
LTYPE
  2
CENTER1
 70
    64
  3
----- - ----- - ----- - ----- - 
 72
    65
 73
     4
 40
10.0
 49
6.25
 49
-1.25
 49
1.25
 49
-1.25
  0
LTYPE
  2
CENTER2
 70
    64
  3
----------  --  ----------  --  
 72
    65
 73
     4
 40
20.0
 49
12.5
 49
-2.5
 49
2.5
 49
-2.5
  0
LTYPE
  2
PHANTOM1
 70
    64
  3
--- - - --- - - --- - - --- - - 
 72
    65
 73
     6
 40
10.0
 49
3.25
 49
-1.25
 49
1.25
 49
-1.25
 49
1.25
 49
-1.25
  0
LTYPE
  2
PHANTOM2
 70
    64
  3
--------  -  -  --------  -  -  
 72
    65
 73
     6
 40
20.0
 49
10.0
 49
-2.5
 49
1.25
 49
-2.5
 49
1.25
 49
-2.5
  0
LTYPE
  2
DOT
 70
    64
  3
-   -   -   -   -   -   -   -   
 72
    65
 73
     2
 40
2.5
 49
0.625
 49
-1.875
  0
LTYPE
  2
DUMMY
 70
    64
  3
ダミー
 72
    65
 73
     0
 40
0.0
  0
LTYPE
  2
RAND1
 70
    64
  3
ランダム線1
 72
    65
 73
     4
 40
10.0
 49
1.0
 49
-2.0
 49
3.0
 49
-4.0
  0
LTYPE
  2
RAND2
 70
    64
  3
ランダム線2
 72
    65
 73
     4
 40
14.0
 49
2.0
 49
-3.0
 49
4.0
 49
-5.0
  0
LTYPE
  2
RAND3
 70
    64
  3
ランダム線3
 72
    65
 73
     4
 40
18.0
 49
3.0
 49
-4.0
 49
5.0
 49
-6.0
  0
LTYPE
  2
RAND4
 70
    64
  3
ランダム線4
 72
    65
 73
     4
 40
22.0
 49
4.0
 49
-5.0
 49
6.0
 49
-7.0
  0
LTYPE
  2
RAND5
 70
    64
  3
ランダム線5
 72
    65
 73
     4
 40
26.0
 49
5.0
 49
-6.0
 49
7.0
 49
-8.0
  0
LTYPE
  2
LONG1
 70
    64
  3
----------  --  ----------  --  
 72
    65
 73
     4
 40
40.0
 49
32.5
 49
-2.5
 49
2.5
 49
-2.5
  0
LTYPE
  2
LONG2
 70
    64
  3
--------  -  -  --------  -  -  
 72
    65
 73
     6
 40
40.0
 49
30.0
 49
-2.5
 49
1.25
 49
-2.5
 49
1.25
 49
-2.5
  0
LTYPE
  2
LONG3
 70
    64
  3
+++++++++++++++..+++++++++++++++
 72
    65
 73
     2
 40
40.0
 49
37.5
 49
-2.5
  0
LTYPE
  2
LONG4
 70
    64
  3
+++++++++++++++..+++++++++++++++
 72
    65
 73
     2
 40
80.0
 49
75.0
 49
-5.0
  0
LTYPE
  2
LONG5
 70
    64
  3
----------  --  ----------  --  
 72
    65
 73
     4
 40
60.0
 49
37.5
 49
-7.5
 49
7.5
 49
-7.5
  0
LTYPE
  2
dashed
 70
   64
  3
-------   -------------   ------
 72
   65
 73
    2
 40
7.5
 49
6
 49
-1.5
  0
LTYPE
  2
dashed_spaced
 70
   64
  3
----        --------        ----
 72
   65
 73
    2
 40
12
 49
6
 49
-6
  0
LTYPE
  2
long_dashed_dotted
 70
   64
  3
------------- --- --------------
 72
   65
 73
    4
 40
15.25
 49
12
 49
-1.5
 49
0.25
 49
-1.5
  0
LTYPE
  2
long_dashed_double-dotted
 70
   64
  3
----------- --- --- ------------
 72
   65
 73
    6
 40
17
 49
12
 49
-1.5
 49
0.25
 49
-1.5
 49
0.25
 49
-1.5
  0
LTYPE
  2
long_dashed_triplicate-dotted
 70
   64
  3
--------- --- --- --- ----------
 72
   65
 73
    8
 40
18.75
 49
12
 49
-1.5
 49
0.25
 49
-1.5
 49
0.25
 49
-1.5
 49
0.25
 49
-1.5
  0
LTYPE
  2
dotted
 70
   64
  3
   -       -       -       -    
 72
   65
 73
    2
 40
1.75
 49
0.25
 49
-1.5
  0
LTYPE
  2
chain
 70
   64
  3
-------------- -- --------------
 72
   65
 73
    4
 40
18.5
 49
12
 49
-1.5
 49
3.5
 49
-1.5
  0
LTYPE
  2
chain_double_dash
 70
   64
  3
------------ -- -- -------------
 72
   65
 73
    6
 40
23.5
 49
12
 49
-1.5
 49
3.5
 49
-1.5
 49
3.5
 49
-1.5
  0
LTYPE
  2
dashed_dotted
 70
   64
  3
-----------     -     ----------
 72
   65
 73
    4
 40
9.25
 49
6
 49
-1.5
 49
0.25
 49
-1.5
  0
LTYPE
  2
double-dashed_dotted
 70
   64
  3
------   -----------   -   -----
 72
   65
 73
    6
 40
16.75
 49
6
 49
-1.5
 49
6
 49
-1.5
 49
0.25
 49
-1.5
  0
LTYPE
  2
dashed_double-dotted
 70
   64
  3
---------    -    -    ---------
 72
   65
 73
    6
 40
11
 49
6
 49
-1.5
 49
0.25
 49
-1.5
 49
0.25
 49
-1.5
  0
LTYPE
  2
double-dashed_double-dotted
 70
   64
  3
-----   ---------   -   -   ----
 72
   65
 73
    8
 40
18.5
 49
6
 49
-1.5
 49
6
 49
-1.5
 49
0.25
 49
-1.5
 49
0.25
 49
-1.5
  0
LTYPE
  2
dashed_triplicate-dotted
 70
   64
  3
-------    -    -    -    ------
 72
   65
 73
    8
 40
12.75
 49
6
 49
-1.5
 49
0.25
 49
-1.5
 49
0.25
 49
-1.5
 49
0.25
 49
-1.5
  0
LTYPE
  2
double-dashed_triplicate-dotted
 70
   64
  3
-----  ---------  -  -  -  -----
 72
   65
 73
   10
 40
20.25
 49
6
 49
-1.5
 49
6
 49
-1.5
 49
0.25
 49
-1.5
 49
0.25
 49
-1.5
 49
0.25
 49
-1.5
  0
LTYPE
  2
undefined
 70
   64
  3
--------------------------------
 72
   65
 73
    0
 40
0
  0
ENDTAB
  0
TABLE
  2
STYLE
  5
3
100
AcDbSymbolTable
 70
     1
  0
STYLE
  5
10
100
AcDbSymbolTableRecord
100
AcDbTextStyleTableRecord
  2
STANDARD
 70
     0
 40
0.0
 41
1.0
 50
0.0
 71
     0
 42
0.2
  3
txt
  4
bigfont.shx
  0
STYLE
  5
26
100
AcDbSymbolTableRecord
100
AcDbTextStyleTableRecord
  2
TATEGAKI
 70
    68
 40
0.0
 41
1.0
 50
0.0
 71
     0
 42
1.0
  3
txt
  4
bigfont.shx
  0
ENDTAB
  0
TABLE
  2
LAYER
 70
    2
  0
LAYER
  2
_0-0_0
 70
   64
 62
    7
  6
CONTINUOUS
  0
LAYER
  2
ADD_LINE
 70
   64
 62
    7
  6
CONTINUOUS
  0
ENDTAB
  0
ENDSEC
  0
SECTION
  2
BLOCKS
  0
ENDSEC
  0
SECTION
  2
ENTITIES
  0
LINE
  8
_0-0_0
  6
CONTINUOUS
 62
    7
 10
223.02456549999999
 20
148.4903845
 11
223.16153349999999
 21
146.89174750000001
  0
LINE
  8
_0-0_0
  6
CONTINUOUS
 62
    7
 10
223.16153349999999
 20
146.89174750000001
 11
223.3767675
 21
146.07578749999999
  0
LINE
  8
_0-0_0
  6
CONTINUOUS
 62
    7
 10
223.3767675
 20
146.07578749999999
 11
223.67027050000002
 21
145.5771465
  0
LINE
  8
_0-0_0
  6
CONTINUOUS
 62
    7
 10
223.67027050000002
 20
145.5771465
 11
224.25727449999999
 21
144.42120549999999
  0
LINE
  8
_0-0_0
  6
CONTINUOUS
 62
    7
 10
224.25727449999999
 20
144.42120549999999
 11
224.4725105
 21
144.05855750000001
  0
LINE
  8
_0-0_0
  6
CONTINUOUS
 62
    7
 10
224.4725105
 20
144.05855750000001
 11
224.9812465
 21
143.6279155
  0
LINE
  8
_0-0_0
  6
CONTINUOUS
 62
    7
 10
224.9812465
 20
143.6279155
 11
225.78348650000001
 21
143.1972705
  0
LINE
  8
_0-0_0
  6
CONTINUOUS
 62
    7
 10
225.78348650000001
 20
143.1972705
 11
227.23143149999999
 21
142.31331349999999
  0
LINE
  8
_0-0_0
  6
CONTINUOUS
 62
    7
 10
227.23143149999999
 20
142.31331349999999
 11
228.3858735
 21
141.95066550000001
  0
LINE
  8
_0-0_0
  6
CONTINUOUS
 62
    7
 10
228.3858735
 20
141.95066550000001
 11
229.0315775
 21
141.88266949999999
  0
LINE
  8
_0-0_0
  6
CONTINUOUS
 62
    7
 10
229.0315775
 20
141.88266949999999
 11
229.7555495
 21
141.8146725
  0
LINE
  8
_0-0_0
  6
CONTINUOUS
 62
    7
 10
229.7555495
 20
141.8146725
 11
230.77302449999999
 21
141.67868149999998
  0
LINE
  8
_0-0_0
  6
CONTINUOUS
 62
    7
 10
230.77302449999999
 20
141.67868149999998
 11
231.28176250000001
 21
141.58801750000001
  0
LINE
  8
_0-0_0
  6
CONTINUOUS
 62
    7
 10
231.28176250000001
 20
141.58801750000001
 11
231.84920049999999
 21
141.58801750000001
  0
LINE
  8
_0-0_0
  6
CONTINUOUS
 62
    7
 10
231.84920049999999
 20
141.58801750000001
 11
232.2209695
 21
141.58801750000001
  0
LINE
  8
_0-0_0
  6
CONTINUOUS
 62
    7
 10
232.2209695
 20
141.58801750000001
 11
233.0819085
 21
141.58801750000001
  0
LINE
  8
_0-0_0
  6
CONTINUOUS
 62
    7
 10
233.0819085
 20
141.58801750000001
 11
233.74718050000001
 21
141.58801750000001
  0
LINE
  8
_0-0_0
  6
CONTINUOUS
 62
    7
 10
233.74718050000001
 20
141.58801750000001
 11
234.3928865
 21
141.74667549999998
  0
LINE
  8
_0-0_0
  6
CONTINUOUS
 62
    7
 10
234.3928865
 20
141.74667549999998
 11
234.7646555
 21
141.88266949999999
  0
LINE
  8
_0-0_0
  6
CONTINUOUS
 62
    7
 10
234.7646555
 20
141.88266949999999
 11
235.11685850000001
 21
142.04132949999999
  0
LINE
  8
_0-0_0
  6
CONTINUOUS
 62
    7
 10
235.11685850000001
 20
142.04132949999999
 11
235.62559450000001
 21
142.2453175
  0
LINE
  8
_0-0_0
  6
CONTINUOUS
 62
    7
 10
235.62559450000001
 20
142.2453175
 11
236.34956650000001
 21
142.60796550000001
  0
LINE
  8
_0-0_0
  6
CONTINUOUS
 62
    7
 10
236.34956650000001
 20
142.60796550000001
 11
237.07353850000001
 21
143.33326149999999
  0
LINE
  8
_0-0_0
  6
CONTINUOUS
 62
    7
 10
237.07353850000001
 20
143.33326149999999
 11
237.15180649999999
 21
143.46925450000001
  0
LINE
  8
_0-0_0
  6
CONTINUOUS
 62
    7
 10
237.15180649999999
 20
143.46925450000001
 11
237.42574250000001
 21
143.92256649999999
  0
LINE
  8
_0-0_0
  6
CONTINUOUS
 62
    7
 10
237.42574250000001
 20
143.92256649999999
 11
237.58227650000001
 21
144.19455049999999
  0
LINE
  8
_0-0_0
  6
CONTINUOUS
 62
    7
 10
237.58227650000001
 20
144.19455049999999
 11
237.7192455
 21
144.71585949999999
  0
LINE
  8
_0-0_0
  6
CONTINUOUS
 62
    7
 10
237.7192455
 20
144.71585949999999
 11
237.87577949999999
 21
144.91984650000001
  0
LINE
  8
_0-0_0
  6
CONTINUOUS
 62
    7
 10
237.87577949999999
 20
144.91984650000001
 11
238.0910145
 21
145.5771465
  0
LINE
  8
_0-0_0
  6
CONTINUOUS
 62
    7
 10
238.0910145
 20
145.5771465
 11
238.14971449999999
 21
146.0077915
  0
LINE
  8
_0-0_0
  6
CONTINUOUS
 62
    7
 10
238.14971449999999
 20
146.0077915
 11
238.30624850000001
 21
146.8010835
  0
LINE
  8
_0-0_0
  6
CONTINUOUS
 62
    7
 10
238.30624850000001
 20
146.8010835
 11
238.65845250000001
 21
148.4903845
  0
LINE
  8
_0-0_0
  6
CONTINUOUS
 62
    7
 10
223.02456549999999
 20
148.4903845
 11
223.28947349999999
 21
150.3929995
  0
LINE
  8
_0-0_0
  6
CONTINUOUS
 62
    7
 10
223.28947349999999
 20
150.3929995
 11
223.59581550000001
 21
151.3626955
  0
LINE
  8
_0-0_0
  6
CONTINUOUS
 62
    7
 10
223.59581550000001
 20
151.3626955
 11
224.0383095
 21
151.9209985
  0
LINE
  8
_0-0_0
  6
CONTINUOUS
 62
    7
 10
224.0383095
 20
151.9209985
 11
224.27657550000001
 21
152.2442255
  0
LINE
  8
_0-0_0
  6
CONTINUOUS
 62
    7
 10
224.27657550000001
 20
152.2442255
 11
224.92329849999999
 21
152.8025375
  0
LINE
  8
_0-0_0
  6
CONTINUOUS
 62
    7
 10
224.92329849999999
 20
152.8025375
 11
225.6721355
 21
153.2139215
  0
LINE
  8
_0-0_0
  6
CONTINUOUS
 62
    7
 10
225.6721355
 20
153.2139215
 11
226.1146305
 21
153.5371485
  0
LINE
  8
_0-0_0
  6
CONTINUOUS
 62
    7
 10
226.1146305
 20
153.5371485
 11
226.76135149999999
 21
153.88976450000001
  0
LINE
  8
_0-0_0
  6
CONTINUOUS
 62
    7
 10
226.76135149999999
 20
153.88976450000001
 11
227.3059605
 21
154.09545249999999
  0
LINE
  8
_0-0_0
  6
CONTINUOUS
 62
    7
 10
227.3059605
 20
154.09545249999999
 11
227.74845450000001
 21
154.30114850000001
  0
LINE
  8
_0-0_0
  6
CONTINUOUS
 62
    7
 10
227.74845450000001
 20
154.30114850000001
 11
228.59940649999999
 21
154.62437549999999
  0
LINE
  8
_0-0_0
  6
CONTINUOUS
 62
    7
 10
228.59940649999999
 20
154.62437549999999
 11
229.48439550000001
 21
154.74191450000001
  0
LINE
  8
_0-0_0
  6
CONTINUOUS
 62
    7
 10
229.48439550000001
 20
154.74191450000001
 11
230.33534550000002
 21
154.8594525
  0
LINE
  8
_0-0_0
  6
CONTINUOUS
 62
    7
 10
230.33534550000002
 20
154.8594525
 11
231.11822050000001
 21
154.8594525
  0
LINE
  8
_0-0_0
  6
CONTINUOUS
 62
    7
 10
231.11822050000001
 20
154.8594525
 11
231.96917049999999
 21
154.8594525
  0
LINE
  8
_0-0_0
  6
CONTINUOUS
 62
    7
 10
231.96917049999999
 20
154.8594525
 11
233.29665249999999
 21
154.74191450000001
  0
LINE
  8
_0-0_0
  6
CONTINUOUS
 62
    7
 10
233.29665249999999
 20
154.74191450000001
 11
233.9433755
 21
154.62437549999999
  0
LINE
  8
_0-0_0
  6
CONTINUOUS
 62
    7
 10
233.9433755
 20
154.62437549999999
 11
234.48798450000001
 21
154.5362255
  0
LINE
  8
_0-0_0
  6
CONTINUOUS
 62
    7
 10
234.48798450000001
 20
154.5362255
 11
234.79432550000001
 21
154.30114850000001
  0
LINE
  8
_0-0_0
  6
CONTINUOUS
 62
    7
 10
234.79432550000001
 20
154.30114850000001
 11
235.23682149999999
 21
154.09545249999999
  0
LINE
  8
_0-0_0
  6
CONTINUOUS
 62
    7
 10
235.23682149999999
 20
154.09545249999999
 11
236.12181050000001
 21
153.44899149999998
  0
LINE
  8
_0-0_0
  6
CONTINUOUS
 62
    7
 10
236.12181050000001
 20
153.44899149999998
 11
236.87064649999999
 21
152.89068750000001
  0
LINE
  8
_0-0_0
  6
CONTINUOUS
 62
    7
 10
236.87064649999999
 20
152.89068750000001
 11
237.41525350000001
 21
152.36176449999999
  0
LINE
  8
_0-0_0
  6
CONTINUOUS
 62
    7
 10
237.41525350000001
 20
152.36176449999999
 11
237.75563550000001
 21
151.9209985
  0
LINE
  8
_0-0_0
  6
CONTINUOUS
 62
    7
 10
237.75563550000001
 20
151.9209985
 11
237.85774950000001
 21
150.83377250000001
  0
LINE
  8
_0-0_0
  6
CONTINUOUS
 62
    7
 10
237.85774950000001
 20
150.83377250000001
 11
238.40235849999999
 21
149.86407650000001
  0
LINE
  8
_0-0_0
  6
CONTINUOUS
 62
    7
 10
238.40235849999999
 20
149.86407650000001
 11
238.65845250000001
 21
148.4903845
  0
LINE
  8
_0-0_0
  6
CONTINUOUS
 62
    7
 10
181.9673095
 20
137.1405695
 11
182.51191850000001
 21
135.81826150000001
  0
LINE
  8
_0-0_0
  6
CONTINUOUS
 62
    7
 10
182.51191850000001
 20
135.81826150000001
 11
182.8182625
 21
134.96611150000001
  0
LINE
  8
_0-0_0
  6
CONTINUOUS
 62
    7
 10
182.8182625
 20
134.96611150000001
 11
183.8053645
 21
133.32057750000001
  0
LINE
  8
_0-0_0
  6
CONTINUOUS
 62
    7
 10
183.8053645
 20
133.32057750000001
 11
184.3499735
 21
132.6741155
  0
LINE
  8
_0-0_0
  6
CONTINUOUS
 62
    7
 10
184.3499735
 20
132.6741155
 11
185.4391875
 21
131.26365849999999
  0
LINE
  8
_0-0_0
  6
CONTINUOUS
 62
    7
 10
185.4391875
 20
131.26365849999999
 11
185.88168350000001
 21
130.7053545
  0
LINE
  8
_0-0_0
  6
CONTINUOUS
 62
    7
 10
185.88168350000001
 20
130.7053545
 11
186.8687875
 21
129.4124315
  0
LINE
  8
_0-0_0
  6
CONTINUOUS
 62
    7
 10
186.8687875
 20
129.4124315
 11
187.71973750000001
 21
128.32520449999998
  0
LINE
  8
_0-0_0
  6
CONTINUOUS
 62
    7
 10
187.71973750000001
 20
128.32520449999998
 11
188.36646049999999
 21
127.44366650000001
  0
LINE
  8
_0-0_0
  6
CONTINUOUS
 62
    7
 10
188.36646049999999
 20
127.44366650000001
 11
189.25144950000001
 21
126.47397749999999
  0
LINE
  8
_0-0_0
  6
CONTINUOUS
 62
    7
 10
189.25144950000001
 20
126.47397749999999
 11
190.3406655
 21
125.9156705
  0
LINE
  8
_0-0_0
  6
CONTINUOUS
 62
    7
 10
190.3406655
 20
125.9156705
 11
191.19161550000001
 21
125.26921249999999
  0
LINE
  8
_0-0_0
  6
CONTINUOUS
 62
    7
 10
191.19161550000001
 20
125.26921249999999
 11
193.37005049999999
 21
123.97628950000001
  0
LINE
  8
_0-0_0
  6
CONTINUOUS
 62
    7
 10
193.37005049999999
 20
123.97628950000001
 11
194.35715250000001
 21
123.32982849999999
  0
LINE
  8
_0-0_0
  6
CONTINUOUS
 62
    7
 10
194.35715250000001
 20
123.32982849999999
 11
195.75271050000001
 21
122.1250625
  0
LINE
  8
_0-0_0
  6
CONTINUOUS
 62
    7
 10
195.75271050000001
 20
122.1250625
 11
196.6376985
 21
121.24352450000001
  0
LINE
  8
_0-0_0
  6
CONTINUOUS
 62
    7
 10
196.6376985
 20
121.24352450000001
 11
197.93114449999999
 21
120.7146055
  0
LINE
  8
_0-0_0
  6
CONTINUOUS
 62
    7
 10
197.93114449999999
 20
120.7146055
 11
199.56496949999999
 21
119.83307049999999
  0
LINE
  8
_0-0_0
  6
CONTINUOUS
 62
    7
 10
199.56496949999999
 20
119.83307049999999
 11
202.73050649999999
 21
119.1866095
  0
LINE
  8
_0-0_0
  6
CONTINUOUS
 62
    7
 10
202.73050649999999
 20
119.1866095
 11
204.12606550000001
 21
118.8633785
  0
LINE
  8
_0-0_0
  6
CONTINUOUS
 62
    7
 10
204.12606550000001
 20
118.8633785
 11
206.4406505
 21
118.6576865
  0
LINE
  8
_0-0_0
  6
CONTINUOUS
 62
    7
 10
206.4406505
 20
118.6576865
 11
208.2787045
 21
118.42260949999999
  0
LINE
  8
_0-0_0
  6
CONTINUOUS
 62
    7
 10
208.2787045
 20
118.42260949999999
 11
209.36792149999999
 21
118.3050705
  0
LINE
  8
_0-0_0
  6
CONTINUOUS
 62
    7
 10
209.36792149999999
 20
118.3050705
 11
211.44424050000001
 21
118.42260949999999
  0
LINE
  8
_0-0_0
  6
CONTINUOUS
 62
    7
 10
211.44424050000001
 20
118.42260949999999
 11
214.2693965
 21
118.54014749999999
  0
LINE
  8
_0-0_0
  6
CONTINUOUS
 62
    7
 10
214.2693965
 20
118.54014749999999
 11
215.12034750000001
 21
118.74583949999999
  0
LINE
  8
_0-0_0
  6
CONTINUOUS
 62
    7
 10
215.12034750000001
 20
118.74583949999999
 11
217.29878049999999
 21
118.98091650000001
  0
LINE
  8
_0-0_0
  6
CONTINUOUS
 62
    7
 10
217.29878049999999
 20
118.98091650000001
 11
219.2729865
 21
119.3922975
  0
LINE
  8
_0-0_0
  6
CONTINUOUS
 62
    7
 10
219.2729865
 20
119.3922975
 11
220.87277449999999
 21
119.83307049999999
  0
LINE
  8
_0-0_0
  6
CONTINUOUS
 62
    7
 10
220.87277449999999
 20
119.83307049999999
 11
222.4044845
 21
120.47952849999999
  0
LINE
  8
_0-0_0
  6
CONTINUOUS
 62
    7
 10
222.4044845
 20
120.47952849999999
 11
225.33175549999999
 21
122.24260150000001
  0
LINE
  8
_0-0_0
  6
CONTINUOUS
 62
    7
 10
225.33175549999999
 20
122.24260150000001
 11
227.10173349999999
 21
123.32982849999999
  0
LINE
  8
_0-0_0
  6
CONTINUOUS
 62
    7
 10
227.10173349999999
 20
123.32982849999999
 11
228.59940649999999
 21
124.2995205
  0
LINE
  8
_0-0_0
  6
CONTINUOUS
 62
    7
 10
228.59940649999999
 20
124.2995205
 11
230.6757255
 21
125.70997749999999
  0
LINE
  8
_0-0_0
  6
CONTINUOUS
 62
    7
 10
230.6757255
 20
125.70997749999999
 11
231.76494149999999
 21
127.5612045
  0
LINE
  8
_0-0_0
  6
CONTINUOUS
 62
    7
 10
231.76494149999999
 20
127.5612045
 11
232.6158935
 21
129.52996949999999
  0
LINE
  8
_0-0_0
  6
CONTINUOUS
 62
    7
 10
232.6158935
 20
129.52996949999999
 11
235.6793145
 21
132.79165449999999
  0
LINE
  8
_0-0_0
  6
CONTINUOUS
 62
    7
 10
235.6793145
 20
132.79165449999999
 11
236.42815150000001
 21
133.96703450000001
  0
LINE
  8
_0-0_0
  6
CONTINUOUS
 62
    7
 10
236.42815150000001
 20
133.96703450000001
 11
237.07487449999999
 21
135.17180450000001
  0
LINE
  8
_0-0_0
  6
CONTINUOUS
 62
    7
 10
237.07487449999999
 20
135.17180450000001
 11
237.41525350000001
 21
136.25903049999999
  0
LINE
  8
_0-0_0
  6
CONTINUOUS
 62
    7
 10
237.41525350000001
 20
136.25903049999999
 11
238.50447149999999
 21
137.99272350000001
  0
LINE
  8
_0-0_0
  6
CONTINUOUS
 62
    7
 10
238.50447149999999
 20
137.99272350000001
 11
238.70869949999999
 21
139.40318049999999
  0
LINE
  8
_0-0_0
  6
CONTINUOUS
 62
    7
 10
238.70869949999999
 20
139.40318049999999
 11
239.49157450000001
 21
142.78240349999999
  0
LINE
  8
_0-0_0
  6
CONTINUOUS
 62
    7
 10
239.49157450000001
 20
142.78240349999999
 11
239.59368849999998
 21
144.63363049999998
  0
LINE
  8
_0-0_0
  6
CONTINUOUS
 62
    7
 10
239.59368849999998
 20
144.63363049999998
 11
240.0361815
 21
147.89531449999998
  0
LINE
  8
_0-0_0
  6
CONTINUOUS
 62
    7
 10
240.0361815
 20
147.89531449999998
 11
239.59368849999998
 21
150.0697725
  0
LINE
  8
_0-0_0
  6
CONTINUOUS
 62
    7
 10
239.59368849999998
 20
150.0697725
 11
239.38946049999998
 21
153.1257645
  0
LINE
  8
_0-0_0
  6
CONTINUOUS
 62
    7
 10
239.38946049999998
 20
153.1257645
 11
238.8448515
 21
155.94667950000002
  0
LINE
  8
_0-0_0
  6
CONTINUOUS
 62
    7
 10
238.8448515
 20
155.94667950000002
 11
238.50447149999999
 21
157.88606349999998
  0
LINE
  8
_0-0_0
  6
CONTINUOUS
 62
    7
 10
238.50447149999999
 20
157.88606349999998
 11
237.07487449999999
 21
161.5003595
  0
LINE
  8
_0-0_0
  6
CONTINUOUS
 62
    7
 10
237.07487449999999
 20
161.5003595
 11
236.42815150000001
 21
163.2340485
  0
LINE
  8
_0-0_0
  6
CONTINUOUS
 62
    7
 10
236.42815150000001
 20
163.2340485
 11
235.23682149999999
 21
165.0852745
  0
LINE
  8
_0-0_0
  6
CONTINUOUS
 62
    7
 10
235.23682149999999
 20
165.0852745
 11
234.1476035
 21
166.49573649999999
  0
LINE
  8
_0-0_0
  6
CONTINUOUS
 62
    7
 10
234.1476035
 20
166.49573649999999
 11
233.16050050000001
 21
168.0237285
  0
LINE
  8
_0-0_0
  6
CONTINUOUS
 62
    7
 10
233.16050050000001
 20
168.0237285
 11
232.3095505
 21
169.19911250000001
  0
LINE
  8
_0-0_0
  6
CONTINUOUS
 62
    7
 10
232.3095505
 20
169.19911250000001
 11
230.8799545
 21
170.60957450000001
  0
LINE
  8
_0-0_0
  6
CONTINUOUS
 62
    7
 10
230.8799545
 20
170.60957450000001
 11
229.2461295
 21
171.69680149999999
  0
LINE
  8
_0-0_0
  6
CONTINUOUS
 62
    7
 10
229.2461295
 20
171.69680149999999
 11
228.29306350000002
 21
172.9015665
  0
LINE
  8
_0-0_0
  6
CONTINUOUS
 62
    7
 10
228.29306350000002
 20
172.9015665
 11
226.65923850000001
 21
173.98879349999999
  0
LINE
  8
_0-0_0
  6
CONTINUOUS
 62
    7
 10
226.65923850000001
 20
173.98879349999999
 11
225.02541249999999
 21
174.9584815
  0
LINE
  8
_0-0_0
  6
CONTINUOUS
 62
    7
 10
225.02541249999999
 20
174.9584815
 11
223.49370149999999
 21
176.0457165
  0
LINE
  8
_0-0_0
  6
CONTINUOUS
 62
    7
 10
223.49370149999999
 20
176.0457165
 11
221.85987649999998
 21
176.72155850000001
  0
LINE
  8
_0-0_0
  6
CONTINUOUS
 62
    7
 10
221.85987649999998
 20
176.72155850000001
 11
220.22605150000001
 21
177.3680205
  0
LINE
  8
_0-0_0
  6
CONTINUOUS
 62
    7
 10
220.22605150000001
 20
177.3680205
 11
218.83049149999999
 21
177.8087855
  0
LINE
  8
_0-0_0
  6
CONTINUOUS
 62
    7
 10
218.83049149999999
 20
177.8087855
 11
216.4137925
 21
178.13201950000001
  0
LINE
  8
_0-0_0
  6
CONTINUOUS
 62
    7
 10
216.4137925
 20
178.13201950000001
 11
214.2693965
 21
178.33770849999999
  0
LINE
  8
_0-0_0
  6
CONTINUOUS
 62
    7
 10
214.2693965
 20
178.33770849999999
 11
212.7376855
 21
178.57278550000001
  0
LINE
  8
_0-0_0
  6
CONTINUOUS
 62
    7
 10
212.7376855
 20
178.57278550000001
 11
210.55925149999999
 21
178.57278550000001
  0
LINE
  8
_0-0_0
  6
CONTINUOUS
 62
    7
 10
210.55925149999999
 20
178.57278550000001
 11
209.12965550000001
 21
178.45524649999999
  0
LINE
  8
_0-0_0
  6
CONTINUOUS
 62
    7
 10
209.12965550000001
 20
178.45524649999999
 11
207.18948750000001
 21
178.33770849999999
  0
LINE
  8
_0-0_0
  6
CONTINUOUS
 62
    7
 10
207.18948750000001
 20
178.33770849999999
 11
205.35143450000001
 21
178.13201950000001
  0
LINE
  8
_0-0_0
  6
CONTINUOUS
 62
    7
 10
205.35143450000001
 20
178.13201950000001
 11
203.1730005
 21
178.01448149999999
  0
LINE
  8
_0-0_0
  6
CONTINUOUS
 62
    7
 10
203.1730005
 20
178.01448149999999
 11
202.08378350000001
 21
177.69124649999998
  0
LINE
  8
_0-0_0
  6
CONTINUOUS
 62
    7
 10
202.08378350000001
 20
177.69124649999998
 11
200.65418550000001
 21
177.3680205
  0
LINE
  8
_0-0_0
  6
CONTINUOUS
 62
    7
 10
200.65418550000001
 20
177.3680205
 11
199.15651249999999
 21
176.8097085
  0
LINE
  8
_0-0_0
  6
CONTINUOUS
 62
    7
 10
199.15651249999999
 20
176.8097085
 11
197.82903049999999
 21
176.16325449999999
  0
LINE
  8
_0-0_0
  6
CONTINUOUS
 62
    7
 10
197.82903049999999
 20
176.16325449999999
 11
196.73981449999999
 21
175.51679350000001
  0
LINE
  8
_0-0_0
  6
CONTINUOUS
 62
    7
 10
196.73981449999999
 20
175.51679350000001
 11
195.3442555
 21
174.87033149999999
  0
LINE
  8
_0-0_0
  6
CONTINUOUS
 62
    7
 10
195.3442555
 20
174.87033149999999
 11
194.15292349999999
 21
174.10633150000001
  0
LINE
  8
_0-0_0
  6
CONTINUOUS
 62
    7
 10
194.15292349999999
 20
174.10633150000001
 11
193.26793649999999
 21
173.54802849999999
  0
LINE
  8
_0-0_0
  6
CONTINUOUS
 62
    7
 10
193.26793649999999
 20
173.54802849999999
 11
192.0766045
 21
172.78402849999998
  0
LINE
  8
_0-0_0
  6
CONTINUOUS
 62
    7
 10
192.0766045
 20
172.78402849999998
 11
190.3406655
 21
171.37356649999998
  0
LINE
  8
_0-0_0
  6
CONTINUOUS
 62
    7
 10
190.3406655
 20
171.37356649999998
 11
189.25144950000001
 21
170.60957450000001
  0
LINE
  8
_0-0_0
  6
CONTINUOUS
 62
    7
 10
189.25144950000001
 20
170.60957450000001
 11
188.36646049999999
 21
169.52233949999999
  0
LINE
  8
_0-0_0
  6
CONTINUOUS
 62
    7
 10
188.36646049999999
 20
169.52233949999999
 11
187.71973750000001
 21
168.67018949999999
  0
LINE
  8
_0-0_0
  6
CONTINUOUS
 62
    7
 10
187.71973750000001
 20
168.67018949999999
 11
186.42629249999999
 21
167.2597365
  0
LINE
  8
_0-0_0
  6
CONTINUOUS
 62
    7
 10
186.42629249999999
 20
167.2597365
 11
185.2349605
 21
165.61419749999999
  0
LINE
  8
_0-0_0
  6
CONTINUOUS
 62
    7
 10
185.2349605
 20
165.61419749999999
 11
184.79246749999999
 21
164.85019749999998
  0
LINE
  8
_0-0_0
  6
CONTINUOUS
 62
    7
 10
184.79246749999999
 20
164.85019749999998
 11
183.8053645
 21
162.9108215
  0
LINE
  8
_0-0_0
  6
CONTINUOUS
 62
    7
 10
183.8053645
 20
162.9108215
 11
183.05652850000001
 21
161.26528250000001
  0
LINE
  8
_0-0_0
  6
CONTINUOUS
 62
    7
 10
183.05652850000001
 20
161.26528250000001
 11
182.1715375
 21
159.97236749999999
  0
LINE
  8
_0-0_0
  6
CONTINUOUS
 62
    7
 10
182.1715375
 20
159.97236749999999
 11
181.52481649999999
 21
158.3268295
  0
LINE
  8
_0-0_0
  6
CONTINUOUS
 62
    7
 10
181.52481649999999
 20
158.3268295
 11
180.77597950000001
 21
155.94667950000002
  0
LINE
  8
_0-0_0
  6
CONTINUOUS
 62
    7
 10
180.77597950000001
 20
155.94667950000002
 11
180.4355985
 21
154.21299149999999
  0
LINE
  8
_0-0_0
  6
CONTINUOUS
 62
    7
 10
180.4355985
 20
154.21299149999999
 11
180.09522049999998
 21
152.89068750000001
  0
LINE
  8
_0-0_0
  6
CONTINUOUS
 62
    7
 10
180.09522049999998
 20
152.89068750000001
 11
179.99310450000002
 21
151.3626955
  0
LINE
  8
_0-0_0
  6
CONTINUOUS
 62
    7
 10
179.99310450000002
 20
151.3626955
 11
180.2313705
 21
148.7768495
  0
LINE
  8
_0-0_0
  6
CONTINUOUS
 62
    7
 10
180.2313705
 20
148.7768495
 11
180.09522049999998
 21
147.45454549999999
  0
LINE
  8
_0-0_0
  6
CONTINUOUS
 62
    7
 10
180.09522049999998
 20
147.45454549999999
 11
179.99310450000002
 21
146.24978049999999
  0
LINE
  8
_0-0_0
  6
CONTINUOUS
 62
    7
 10
179.99310450000002
 20
146.24978049999999
 11
179.99310450000002
 21
144.83932249999998
  0
LINE
  8
_0-0_0
  6
CONTINUOUS
 62
    7
 10
179.99310450000002
 20
144.83932249999998
 11
180.4355985
 21
141.81271150000001
  0
LINE
  8
_0-0_0
  6
CONTINUOUS
 62
    7
 10
180.4355985
 20
141.81271150000001
 11
180.77597950000001
 21
140.2847155
  0
LINE
  8
_0-0_0
  6
CONTINUOUS
 62
    7
 10
180.77597950000001
 20
140.2847155
 11
180.87809149999998
 21
138.8742575
  0
LINE
  8
_0-0_0
  6
CONTINUOUS
 62
    7
 10
180.87809149999998
 20
138.8742575
 11
182.1715375
 21
137.1405695
  0
LINE
  8
_0-0_0
  6
CONTINUOUS
 62
    7
 10
182.1715375
 20
137.1405695
 11
181.9673095
 21
137.1405695
  0
CIRCLE
  8
_0-0_0
  6
CONTINUOUS
 62
    7
 10
209.9798495
 20
148.4903845
 40
12.405602
  0
CIRCLE
  8
_0-0_0
  6
CONTINUOUS
 62
    7
 10
209.9798495
 20
148.4903845
 40
6.6404870000000003
  0
CIRCLE
  8
_0-0_0
  6
CONTINUOUS
 62
    7
 10
209.9798495
 20
148.4903845
 40
11.658481999999999
  0
LINE
  8
_0-0_0
  6
CONTINUOUS
 62
    7
 10
209.9798495
 20
161.53509650000001
 11
211.57848749999999
 21
161.6720665
  0
LINE
  8
_0-0_0
  6
CONTINUOUS
 62
    7
 10
211.57848749999999
 20
161.6720665
 11
212.39444549999999
 21
161.88729949999998
  0
LINE
  8
_0-0_0
  6
CONTINUOUS
 62
    7
 10
212.39444549999999
 20
161.88729949999998
 11
212.89308650000001
 21
162.1808025
  0
LINE
  8
_0-0_0
  6
CONTINUOUS
 62
    7
 10
212.89308650000001
 20
162.1808025
 11
214.04902749999999
 21
162.7678085
  0
LINE
  8
_0-0_0
  6
CONTINUOUS
 62
    7
 10
214.04902749999999
 20
162.7678085
 11
214.4116755
 21
162.9830485
  0
LINE
  8
_0-0_0
  6
CONTINUOUS
 62
    7
 10
214.4116755
 20
162.9830485
 11
214.8423205
 21
163.49178449999999
  0
LINE
  8
_0-0_0
  6
CONTINUOUS
 62
    7
 10
214.8423205
 20
163.49178449999999
 11
215.2729645
 21
164.29402249999998
  0
LINE
  8
_0-0_0
  6
CONTINUOUS
 62
    7
 10
215.2729645
 20
164.29402249999998
 11
216.15691949999999
 21
165.74196749999999
  0
LINE
  8
_0-0_0
  6
CONTINUOUS
 62
    7
 10
216.15691949999999
 20
165.74196749999999
 11
216.51956749999999
 21
166.8964095
  0
LINE
  8
_0-0_0
  6
CONTINUOUS
 62
    7
 10
216.51956749999999
 20
166.8964095
 11
216.58756450000001
 21
167.54211549999999
  0
LINE
  8
_0-0_0
  6
CONTINUOUS
 62
    7
 10
216.58756450000001
 20
167.54211549999999
 11
216.65556050000001
 21
168.26608349999998
  0
LINE
  8
_0-0_0
  6
CONTINUOUS
 62
    7
 10
216.65556050000001
 20
168.26608349999998
 11
216.79155349999999
 21
169.28355549999998
  0
LINE
  8
_0-0_0
  6
CONTINUOUS
 62
    7
 10
216.79155349999999
 20
169.28355549999998
 11
216.8822155
 21
169.79229850000002
  0
LINE
  8
_0-0_0
  6
CONTINUOUS
 62
    7
 10
216.8822155
 20
169.79229850000002
 11
216.8822155
 21
170.3597345
  0
LINE
  8
_0-0_0
  6
CONTINUOUS
 62
    7
 10
216.8822155
 20
170.3597345
 11
216.8822155
 21
170.73150749999999
  0
LINE
  8
_0-0_0
  6
CONTINUOUS
 62
    7
 10
216.8822155
 20
170.73150749999999
 11
216.8822155
 21
171.59243850000001
  0
LINE
  8
_0-0_0
  6
CONTINUOUS
 62
    7
 10
216.8822155
 20
171.59243850000001
 11
216.8822155
 21
172.25771449999999
  0
LINE
  8
_0-0_0
  6
CONTINUOUS
 62
    7
 10
216.8822155
 20
172.25771449999999
 11
216.7235575
 21
172.90342049999998
  0
LINE
  8
_0-0_0
  6
CONTINUOUS
 62
    7
 10
216.7235575
 20
172.90342049999998
 11
216.58756450000001
 21
173.2751935
  0
LINE
  8
_0-0_0
  6
CONTINUOUS
 62
    7
 10
216.58756450000001
 20
173.2751935
 11
216.42890550000001
 21
173.6273965
  0
LINE
  8
_0-0_0
  6
CONTINUOUS
 62
    7
 10
216.42890550000001
 20
173.6273965
 11
216.22491650000001
 21
174.13612449999999
  0
LINE
  8
_0-0_0
  6
CONTINUOUS
 62
    7
 10
216.22491650000001
 20
174.13612449999999
 11
215.8622685
 21
174.86010049999999
  0
LINE
  8
_0-0_0
  6
CONTINUOUS
 62
    7
 10
215.8622685
 20
174.86010049999999
 11
215.13697149999999
 21
175.58407649999998
  0
LINE
  8
_0-0_0
  6
CONTINUOUS
 62
    7
 10
215.13697149999999
 20
175.58407649999998
 11
215.0009785
 21
175.6623395
  0
LINE
  8
_0-0_0
  6
CONTINUOUS
 62
    7
 10
215.0009785
 20
175.6623395
 11
214.54766849999999
 21
175.93628050000001
  0
LINE
  8
_0-0_0
  6
CONTINUOUS
 62
    7
 10
214.54766849999999
 20
175.93628050000001
 11
214.27568249999999
 21
176.09281249999998
  0
LINE
  8
_0-0_0
  6
CONTINUOUS
 62
    7
 10
214.27568249999999
 20
176.09281249999998
 11
213.75437650000001
 21
176.2297835
  0
LINE
  8
_0-0_0
  6
CONTINUOUS
 62
    7
 10
213.75437650000001
 20
176.2297835
 11
213.5503865
 21
176.38631549999999
  0
LINE
  8
_0-0_0
  6
CONTINUOUS
 62
    7
 10
213.5503865
 20
176.38631549999999
 11
212.89308650000001
 21
176.60154849999998
  0
LINE
  8
_0-0_0
  6
CONTINUOUS
 62
    7
 10
212.89308650000001
 20
176.60154849999998
 11
212.46244150000001
 21
176.66024849999999
  0
LINE
  8
_0-0_0
  6
CONTINUOUS
 62
    7
 10
212.46244150000001
 20
176.66024849999999
 11
211.6691495
 21
176.81678149999999
  0
LINE
  8
_0-0_0
  6
CONTINUOUS
 62
    7
 10
211.6691495
 20
176.81678149999999
 11
209.9798495
 21
177.16898449999999
  0
LINE
  8
_0-0_0
  6
CONTINUOUS
 62
    7
 10
219.3980875
 20
157.5434735
 11
218.83144949999999
 21
158.26744250000002
  0
LINE
  8
_0-0_0
  6
CONTINUOUS
 62
    7
 10
218.83144949999999
 20
158.26744250000002
 11
218.6047945
 21
158.7174775
  0
LINE
  8
_0-0_0
  6
CONTINUOUS
 62
    7
 10
218.6047945
 20
158.7174775
 11
218.24214649999999
 21
159.44145349999999
  0
LINE
  8
_0-0_0
  6
CONTINUOUS
 62
    7
 10
218.24214649999999
 20
159.44145349999999
 11
218.1741505
 21
159.71538649999999
  0
LINE
  8
_0-0_0
  6
CONTINUOUS
 62
    7
 10
218.1741505
 20
159.71538649999999
 11
218.1061535
 21
160.3806625
  0
LINE
  8
_0-0_0
  6
CONTINUOUS
 62
    7
 10
218.1061535
 20
160.3806625
 11
218.1061535
 21
160.8893975
  0
LINE
  8
_0-0_0
  6
CONTINUOUS
 62
    7
 10
218.1061535
 20
160.8893975
 11
218.03815750000001
 21
161.7503365
  0
LINE
  8
_0-0_0
  6
CONTINUOUS
 62
    7
 10
218.03815750000001
 20
161.7503365
 11
217.97016049999999
 21
162.55257549999999
  0
LINE
  8
_0-0_0
  6
CONTINUOUS
 62
    7
 10
217.97016049999999
 20
162.55257549999999
 11
217.97016049999999
 21
163.19828150000001
  0
LINE
  8
_0-0_0
  6
CONTINUOUS
 62
    7
 10
217.97016049999999
 20
163.19828150000001
 11
217.97016049999999
 21
163.8439875
  0
LINE
  8
_0-0_0
  6
CONTINUOUS
 62
    7
 10
217.97016049999999
 20
163.8439875
 11
218.1061535
 21
164.56795649999998
  0
LINE
  8
_0-0_0
  6
CONTINUOUS
 62
    7
 10
218.1061535
 20
164.56795649999998
 11
218.24214649999999
 21
164.9397285
  0
LINE
  8
_0-0_0
  6
CONTINUOUS
 62
    7
 10
218.24214649999999
 20
164.9397285
 11
218.40080549999999
 21
165.5267345
  0
LINE
  8
_0-0_0
  6
CONTINUOUS
 62
    7
 10
218.40080549999999
 20
165.5267345
 11
218.69545650000001
 21
166.3094035
  0
LINE
  8
_0-0_0
  6
CONTINUOUS
 62
    7
 10
218.69545650000001
 20
166.3094035
 11
219.05810450000001
 21
166.9746715
  0
LINE
  8
_0-0_0
  6
CONTINUOUS
 62
    7
 10
219.05810450000001
 20
166.9746715
 11
219.33009150000001
 21
167.46384549999999
  0
LINE
  8
_0-0_0
  6
CONTINUOUS
 62
    7
 10
219.33009150000001
 20
167.46384549999999
 11
219.69273949999999
 21
167.83561850000001
  0
LINE
  8
_0-0_0
  6
CONTINUOUS
 62
    7
 10
219.69273949999999
 20
167.83561850000001
 11
220.12338349999999
 21
168.26608349999998
  0
LINE
  8
_0-0_0
  6
CONTINUOUS
 62
    7
 10
220.12338349999999
 20
168.26608349999998
 11
220.4860315
 21
168.55958649999999
  0
LINE
  8
_0-0_0
  6
CONTINUOUS
 62
    7
 10
220.4860315
 20
168.55958649999999
 11
220.93934250000001
 21
168.85308950000001
  0
LINE
  8
_0-0_0
  6
CONTINUOUS
 62
    7
 10
220.93934250000001
 20
168.85308950000001
 11
221.57397650000001
 21
169.4205255
  0
LINE
  8
_0-0_0
  6
CONTINUOUS
 62
    7
 10
221.57397650000001
 20
169.4205255
 11
221.8686275
 21
169.63575850000001
  0
LINE
  8
_0-0_0
  6
CONTINUOUS
 62
    7
 10
221.8686275
 20
169.63575850000001
 11
222.36726949999999
 21
170.0075315
  0
LINE
  8
_0-0_0
  6
CONTINUOUS
 62
    7
 10
222.36726949999999
 20
170.0075315
 11
222.8885755
 21
170.14450149999999
  0
LINE
  8
_0-0_0
  6
CONTINUOUS
 62
    7
 10
222.8885755
 20
170.14450149999999
 11
223.45521350000001
 21
170.3597345
  0
LINE
  8
_0-0_0
  6
CONTINUOUS
 62
    7
 10
223.45521350000001
 20
170.3597345
 11
223.9085235
 21
170.5162665
  0
LINE
  8
_0-0_0
  6
CONTINUOUS
 62
    7
 10
223.9085235
 20
170.5162665
 11
224.7698125
 21
170.65323749999999
  0
LINE
  8
_0-0_0
  6
CONTINUOUS
 62
    7
 10
224.7698125
 20
170.65323749999999
 11
225.6311025
 21
170.8684705
  0
LINE
  8
_0-0_0
  6
CONTINUOUS
 62
    7
 10
225.6311025
 20
170.8684705
 11
226.1524095
 21
170.94674049999998
  0
LINE
  8
_0-0_0
  6
CONTINUOUS
 62
    7
 10
226.1524095
 20
170.94674049999998
 11
226.6510495
 21
170.8684705
  0
LINE
  8
_0-0_0
  6
CONTINUOUS
 62
    7
 10
226.6510495
 20
170.8684705
 11
227.37634550000001
 21
170.65323749999999
  0
LINE
  8
_0-0_0
  6
CONTINUOUS
 62
    7
 10
227.37634550000001
 20
170.65323749999999
 11
228.10164349999999
 21
170.30103450000001
  0
LINE
  8
_0-0_0
  6
CONTINUOUS
 62
    7
 10
228.10164349999999
 20
170.30103450000001
 11
228.89493450000001
 21
170.0075315
  0
LINE
  8
_0-0_0
  6
CONTINUOUS
 62
    7
 10
228.89493450000001
 20
170.0075315
 11
229.68822750000001
 21
169.4205255
  0
LINE
  8
_0-0_0
  6
CONTINUOUS
 62
    7
 10
229.68822750000001
 20
169.4205255
 11
230.05087549999999
 21
169.36182550000001
  0
LINE
  8
_0-0_0
  6
CONTINUOUS
 62
    7
 10
230.05087549999999
 20
169.36182550000001
 11
230.4135235
 21
168.85308950000001
  0
LINE
  8
_0-0_0
  6
CONTINUOUS
 62
    7
 10
230.4135235
 20
168.85308950000001
 11
230.70817650000001
 21
168.4813245
  0
LINE
  8
_0-0_0
  6
CONTINUOUS
 62
    7
 10
230.70817650000001
 20
168.4813245
 11
231.07082450000001
 21
167.69864749999999
  0
LINE
  8
_0-0_0
  6
CONTINUOUS
 62
    7
 10
231.07082450000001
 20
167.69864749999999
 11
231.27481349999999
 21
167.18991149999999
  0
LINE
  8
_0-0_0
  6
CONTINUOUS
 62
    7
 10
231.27481349999999
 20
167.18991149999999
 11
231.43347249999999
 21
166.68116850000001
  0
LINE
  8
_0-0_0
  6
CONTINUOUS
 62
    7
 10
231.43347249999999
 20
166.68116850000001
 11
231.50146949999998
 21
166.4659355
  0
LINE
  8
_0-0_0
  6
CONTINUOUS
 62
    7
 10
231.50146949999998
 20
166.4659355
 11
231.6374615
 21
165.74196749999999
  0
LINE
  8
_0-0_0
  6
CONTINUOUS
 62
    7
 10
231.6374615
 20
165.74196749999999
 11
232.00010950000001
 21
164.13748249999998
  0
LINE
  8
_0-0_0
  6
CONTINUOUS
 62
    7
 10
232.00010950000001
 20
164.13748249999998
 11
232.00010950000001
 21
163.57004649999999
  0
LINE
  8
_0-0_0
  6
CONTINUOUS
 62
    7
 10
232.00010950000001
 20
163.57004649999999
 11
232.00010950000001
 21
162.84607849999998
  0
LINE
  8
_0-0_0
  6
CONTINUOUS
 62
    7
 10
232.00010950000001
 20
162.84607849999998
 11
232.00010950000001
 21
162.39604349999999
  0
LINE
  8
_0-0_0
  6
CONTINUOUS
 62
    7
 10
232.00010950000001
 20
162.39604349999999
 11
231.86411749999999
 21
161.6720665
  0
LINE
  8
_0-0_0
  6
CONTINUOUS
 62
    7
 10
231.86411749999999
 20
161.6720665
 11
231.86411749999999
 21
161.10463049999998
  0
LINE
  8
_0-0_0
  6
CONTINUOUS
 62
    7
 10
231.86411749999999
 20
161.10463049999998
 11
231.56946450000001
 21
160.3806625
  0
LINE
  8
_0-0_0
  6
CONTINUOUS
 62
    7
 10
231.56946450000001
 20
160.3806625
 11
231.3654755
 21
160.00888950000001
  0
LINE
  8
_0-0_0
  6
CONTINUOUS
 62
    7
 10
231.3654755
 20
160.00888950000001
 11
230.84416849999999
 21
159.50015350000001
  0
LINE
  8
_0-0_0
  6
CONTINUOUS
 62
    7
 10
230.84416849999999
 20
159.50015350000001
 11
230.05087549999999
 21
158.2087415
  0
LINE
  8
_0-0_0
  6
CONTINUOUS
 62
    7
 10
230.05087549999999
 20
158.2087415
 11
228.82693950000001
 21
157.32823350000001
  0
LINE
  8
_0-0_0
  6
CONTINUOUS
 62
    7
 10
228.82693950000001
 20
157.32823350000001
 11
227.94298449999999
 21
157.1130005
  0
LINE
  8
_0-0_0
  6
CONTINUOUS
 62
    7
 10
227.94298449999999
 20
157.1130005
 11
227.2403535
 21
156.89776749999999
  0
LINE
  8
_0-0_0
  6
CONTINUOUS
 62
    7
 10
227.2403535
 20
156.89776749999999
 11
226.6510495
 21
156.7607965
  0
LINE
  8
_0-0_0
  6
CONTINUOUS
 62
    7
 10
226.6510495
 20
156.7607965
 11
225.6311025
 21
156.6042645
  0
LINE
  8
_0-0_0
  6
CONTINUOUS
 62
    7
 10
225.6311025
 20
156.6042645
 11
224.40716449999999
 21
156.46729449999998
  0
LINE
  8
_0-0_0
  6
CONTINUOUS
 62
    7
 10
224.40716449999999
 20
156.46729449999998
 11
223.61387250000001
 21
156.3890245
  0
LINE
  8
_0-0_0
  6
CONTINUOUS
 62
    7
 10
223.61387250000001
 20
156.3890245
 11
222.7299175
 21
156.3890245
  0
LINE
  8
_0-0_0
  6
CONTINUOUS
 62
    7
 10
222.7299175
 20
156.3890245
 11
221.93662449999999
 21
156.33032349999999
  0
LINE
  8
_0-0_0
  6
CONTINUOUS
 62
    7
 10
221.93662449999999
 20
156.33032349999999
 11
221.4379835
 21
156.33032349999999
  0
LINE
  8
_0-0_0
  6
CONTINUOUS
 62
    7
 10
221.4379835
 20
156.33032349999999
 11
221.36998650000001
 21
156.33032349999999
  0
LINE
  8
_0-0_0
  6
CONTINUOUS
 62
    7
 10
221.36998650000001
 20
156.33032349999999
 11
220.93934250000001
 21
156.6042645
  0
LINE
  8
_0-0_0
  6
CONTINUOUS
 62
    7
 10
220.93934250000001
 20
156.6042645
 11
219.85139749999999
 21
157.1912705
  0
LINE
  8
_0-0_0
  6
CONTINUOUS
 62
    7
 10
219.85139749999999
 20
157.1912705
 11
219.3980875
 21
157.5434735
  0
LINE
  8
_0-0_0
  6
CONTINUOUS
 62
    7
 10
219.03293550000001
 20
139.0721455
 11
219.75690750000001
 21
139.63878349999999
  0
LINE
  8
_0-0_0
  6
CONTINUOUS
 62
    7
 10
219.75690750000001
 20
139.63878349999999
 11
220.20694449999999
 21
139.8654415
  0
LINE
  8
_0-0_0
  6
CONTINUOUS
 62
    7
 10
220.20694449999999
 20
139.8654415
 11
220.9309165
 21
140.22808950000001
  0
LINE
  8
_0-0_0
  6
CONTINUOUS
 62
    7
 10
220.9309165
 20
140.22808950000001
 11
221.20485149999999
 21
140.29608350000001
  0
LINE
  8
_0-0_0
  6
CONTINUOUS
 62
    7
 10
221.20485149999999
 20
140.29608350000001
 11
221.87012350000001
 21
140.3640805
  0
LINE
  8
_0-0_0
  6
CONTINUOUS
 62
    7
 10
221.87012350000001
 20
140.3640805
 11
222.3788605
 21
140.3640805
  0
LINE
  8
_0-0_0
  6
CONTINUOUS
 62
    7
 10
222.3788605
 20
140.3640805
 11
223.2398005
 21
140.43207649999999
  0
LINE
  8
_0-0_0
  6
CONTINUOUS
 62
    7
 10
223.2398005
 20
140.43207649999999
 11
224.04203949999999
 21
140.50007349999998
  0
LINE
  8
_0-0_0
  6
CONTINUOUS
 62
    7
 10
224.04203949999999
 20
140.50007349999998
 11
224.68774450000001
 21
140.50007349999998
  0
LINE
  8
_0-0_0
  6
CONTINUOUS
 62
    7
 10
224.68774450000001
 20
140.50007349999998
 11
225.3334505
 21
140.50007349999998
  0
LINE
  8
_0-0_0
  6
CONTINUOUS
 62
    7
 10
225.3334505
 20
140.50007349999998
 11
226.0574215
 21
140.3640805
  0
LINE
  8
_0-0_0
  6
CONTINUOUS
 62
    7
 10
226.0574215
 20
140.3640805
 11
226.4291905
 21
140.22808950000001
  0
LINE
  8
_0-0_0
  6
CONTINUOUS
 62
    7
 10
226.4291905
 20
140.22808950000001
 11
227.01619650000001
 21
140.06942849999999
  0
LINE
  8
_0-0_0
  6
CONTINUOUS
 62
    7
 10
227.01619650000001
 20
140.06942849999999
 11
227.7988695
 21
139.7747775
  0
LINE
  8
_0-0_0
  6
CONTINUOUS
 62
    7
 10
227.7988695
 20
139.7747775
 11
228.46414150000001
 21
139.41212949999999
  0
LINE
  8
_0-0_0
  6
CONTINUOUS
 62
    7
 10
228.46414150000001
 20
139.41212949999999
 11
228.95331149999998
 21
139.1401425
  0
LINE
  8
_0-0_0
  6
CONTINUOUS
 62
    7
 10
228.95331149999998
 20
139.1401425
 11
229.32508050000001
 21
138.77749449999999
  0
LINE
  8
_0-0_0
  6
CONTINUOUS
 62
    7
 10
229.32508050000001
 20
138.77749449999999
 11
229.7555495
 21
138.34684949999999
  0
LINE
  8
_0-0_0
  6
CONTINUOUS
 62
    7
 10
229.7555495
 20
138.34684949999999
 11
230.04905250000002
 21
137.98420149999998
  0
LINE
  8
_0-0_0
  6
CONTINUOUS
 62
    7
 10
230.04905250000002
 20
137.98420149999998
 11
230.3425555
 21
137.53089249999999
  0
LINE
  8
_0-0_0
  6
CONTINUOUS
 62
    7
 10
230.3425555
 20
137.53089249999999
 11
230.90999349999998
 21
136.89625749999999
  0
LINE
  8
_0-0_0
  6
CONTINUOUS
 62
    7
 10
230.90999349999998
 20
136.89625749999999
 11
231.12522849999999
 21
136.6016065
  0
LINE
  8
_0-0_0
  6
CONTINUOUS
 62
    7
 10
231.12522849999999
 20
136.6016065
 11
231.49699749999999
 21
136.10296449999998
  0
LINE
  8
_0-0_0
  6
CONTINUOUS
 62
    7
 10
231.49699749999999
 20
136.10296449999998
 11
231.63396349999999
 21
135.5816585
  0
LINE
  8
_0-0_0
  6
CONTINUOUS
 62
    7
 10
231.63396349999999
 20
135.5816585
 11
231.84920049999999
 21
135.01502049999999
  0
LINE
  8
_0-0_0
  6
CONTINUOUS
 62
    7
 10
231.84920049999999
 20
135.01502049999999
 11
232.00573449999999
 21
134.5617115
  0
LINE
  8
_0-0_0
  6
CONTINUOUS
 62
    7
 10
232.00573449999999
 20
134.5617115
 11
232.14270149999999
 21
133.7004215
  0
LINE
  8
_0-0_0
  6
CONTINUOUS
 62
    7
 10
232.14270149999999
 20
133.7004215
 11
232.35793649999999
 21
132.83913150000001
  0
LINE
  8
_0-0_0
  6
CONTINUOUS
 62
    7
 10
232.35793649999999
 20
132.83913150000001
 11
232.4362045
 21
132.3178265
  0
LINE
  8
_0-0_0
  6
CONTINUOUS
 62
    7
 10
232.4362045
 20
132.3178265
 11
232.35793649999999
 21
131.81918450000001
  0
LINE
  8
_0-0_0
  6
CONTINUOUS
 62
    7
 10
232.35793649999999
 20
131.81918450000001
 11
232.14270149999999
 21
131.09388849999999
  0
LINE
  8
_0-0_0
  6
CONTINUOUS
 62
    7
 10
232.14270149999999
 20
131.09388849999999
 11
231.79049950000001
 21
130.36859250000001
  0
LINE
  8
_0-0_0
  6
CONTINUOUS
 62
    7
 10
231.79049950000001
 20
130.36859250000001
 11
231.49699749999999
 21
129.5752995
  0
LINE
  8
_0-0_0
  6
CONTINUOUS
 62
    7
 10
231.49699749999999
 20
129.5752995
 11
230.90999349999998
 21
128.78200649999999
  0
LINE
  8
_0-0_0
  6
CONTINUOUS
 62
    7
 10
230.90999349999998
 20
128.78200649999999
 11
230.8512925
 21
128.41935849999999
  0
LINE
  8
_0-0_0
  6
CONTINUOUS
 62
    7
 10
230.8512925
 20
128.41935849999999
 11
230.3425555
 21
128.05671050000001
  0
LINE
  8
_0-0_0
  6
CONTINUOUS
 62
    7
 10
230.3425555
 20
128.05671050000001
 11
229.9707865
 21
127.7620565
  0
LINE
  8
_0-0_0
  6
CONTINUOUS
 62
    7
 10
229.9707865
 20
127.7620565
 11
229.18811349999999
 21
127.39940849999999
  0
LINE
  8
_0-0_0
  6
CONTINUOUS
 62
    7
 10
229.18811349999999
 20
127.39940849999999
 11
228.67937549999999
 21
127.1954205
  0
LINE
  8
_0-0_0
  6
CONTINUOUS
 62
    7
 10
228.67937549999999
 20
127.1954205
 11
228.1706385
 21
127.0367605
  0
LINE
  8
_0-0_0
  6
CONTINUOUS
 62
    7
 10
228.1706385
 20
127.0367605
 11
227.95540349999999
 21
126.96876649999999
  0
LINE
  8
_0-0_0
  6
CONTINUOUS
 62
    7
 10
227.95540349999999
 20
126.96876649999999
 11
227.23143149999999
 21
126.8327725
  0
LINE
  8
_0-0_0
  6
CONTINUOUS
 62
    7
 10
227.23143149999999
 20
126.8327725
 11
225.62695249999999
 21
126.4701245
  0
LINE
  8
_0-0_0
  6
CONTINUOUS
 62
    7
 10
225.62695249999999
 20
126.4701245
 11
225.05951350000001
 21
126.4701245
  0
LINE
  8
_0-0_0
  6
CONTINUOUS
 62
    7
 10
225.05951350000001
 20
126.4701245
 11
224.3355425
 21
126.4701245
  0
LINE
  8
_0-0_0
  6
CONTINUOUS
 62
    7
 10
224.3355425
 20
126.4701245
 11
223.88550549999999
 21
126.4701245
  0
LINE
  8
_0-0_0
  6
CONTINUOUS
 62
    7
 10
223.88550549999999
 20
126.4701245
 11
223.16153349999999
 21
126.60611849999999
  0
LINE
  8
_0-0_0
  6
CONTINUOUS
 62
    7
 10
223.16153349999999
 20
126.60611849999999
 11
222.59409650000001
 21
126.60611849999999
  0
LINE
  8
_0-0_0
  6
CONTINUOUS
 62
    7
 10
222.59409650000001
 20
126.60611849999999
 11
221.87012350000001
 21
126.9007695
  0
LINE
  8
_0-0_0
  6
CONTINUOUS
 62
    7
 10
221.87012350000001
 20
126.9007695
 11
221.49835350000001
 21
127.1047605
  0
LINE
  8
_0-0_0
  6
CONTINUOUS
 62
    7
 10
221.49835350000001
 20
127.1047605
 11
220.98961750000001
 21
127.6260655
  0
LINE
  8
_0-0_0
  6
CONTINUOUS
 62
    7
 10
220.98961750000001
 20
127.6260655
 11
219.6982065
 21
128.41935849999999
  0
LINE
  8
_0-0_0
  6
CONTINUOUS
 62
    7
 10
219.6982065
 20
128.41935849999999
 11
218.8177005
 21
129.64329649999999
  0
LINE
  8
_0-0_0
  6
CONTINUOUS
 62
    7
 10
218.8177005
 20
129.64329649999999
 11
218.60246549999999
 21
130.52725049999998
  0
LINE
  8
_0-0_0
  6
CONTINUOUS
 62
    7
 10
218.60246549999999
 20
130.52725049999998
 11
218.38723049999999
 21
131.2298825
  0
LINE
  8
_0-0_0
  6
CONTINUOUS
 62
    7
 10
218.38723049999999
 20
131.2298825
 11
218.25026349999999
 21
131.81918450000001
  0
LINE
  8
_0-0_0
  6
CONTINUOUS
 62
    7
 10
218.25026349999999
 20
131.81918450000001
 11
218.0937275
 21
132.83913150000001
  0
LINE
  8
_0-0_0
  6
CONTINUOUS
 62
    7
 10
218.0937275
 20
132.83913150000001
 11
217.9567605
 21
134.06306949999998
  0
LINE
  8
_0-0_0
  6
CONTINUOUS
 62
    7
 10
217.9567605
 20
134.06306949999998
 11
217.87849349999999
 21
134.85636249999999
  0
LINE
  8
_0-0_0
  6
CONTINUOUS
 62
    7
 10
217.87849349999999
 20
134.85636249999999
 11
217.87849349999999
 21
135.74031650000001
  0
LINE
  8
_0-0_0
  6
CONTINUOUS
 62
    7
 10
217.87849349999999
 20
135.74031650000001
 11
217.81979250000001
 21
136.53360950000001
  0
LINE
  8
_0-0_0
  6
CONTINUOUS
 62
    7
 10
217.81979250000001
 20
136.53360950000001
 11
217.81979250000001
 21
137.0322505
  0
LINE
  8
_0-0_0
  6
CONTINUOUS
 62
    7
 10
217.81979250000001
 20
137.0322505
 11
217.81979250000001
 21
137.10024749999999
  0
LINE
  8
_0-0_0
  6
CONTINUOUS
 62
    7
 10
217.81979250000001
 20
137.10024749999999
 11
218.0937275
 21
137.53089249999999
  0
LINE
  8
_0-0_0
  6
CONTINUOUS
 62
    7
 10
218.0937275
 20
137.53089249999999
 11
218.6807325
 21
138.61883649999999
  0
LINE
  8
_0-0_0
  6
CONTINUOUS
 62
    7
 10
218.6807325
 20
138.61883649999999
 11
219.03293550000001
 21
139.0721455
  0
LINE
  8
_0-0_0
  6
CONTINUOUS
 62
    7
 10
209.9798495
 20
135.44566850000001
 11
211.88246649999999
 21
135.18076049999999
  0
LINE
  8
_0-0_0
  6
CONTINUOUS
 62
    7
 10
211.88246649999999
 20
135.18076049999999
 11
212.8521575
 21
134.87441749999999
  0
LINE
  8
_0-0_0
  6
CONTINUOUS
 62
    7
 10
212.8521575
 20
134.87441749999999
 11
213.41046349999999
 21
134.43192449999998
  0
LINE
  8
_0-0_0
  6
CONTINUOUS
 62
    7
 10
213.41046349999999
 20
134.43192449999998
 11
213.73369349999999
 21
134.1936585
  0
LINE
  8
_0-0_0
  6
CONTINUOUS
 62
    7
 10
213.73369349999999
 20
134.1936585
 11
214.2919995
 21
133.54693750000001
  0
LINE
  8
_0-0_0
  6
CONTINUOUS
 62
    7
 10
214.2919995
 20
133.54693750000001
 11
214.7033835
 21
132.79809749999998
  0
LINE
  8
_0-0_0
  6
CONTINUOUS
 62
    7
 10
214.7033835
 20
132.79809749999998
 11
215.0266135
 21
132.3556035
  0
LINE
  8
_0-0_0
  6
CONTINUOUS
 62
    7
 10
215.0266135
 20
132.3556035
 11
215.37922850000001
 21
131.70888249999999
  0
LINE
  8
_0-0_0
  6
CONTINUOUS
 62
    7
 10
215.37922850000001
 20
131.70888249999999
 11
215.58492050000001
 21
131.16427350000001
  0
LINE
  8
_0-0_0
  6
CONTINUOUS
 62
    7
 10
215.58492050000001
 20
131.16427350000001
 11
215.79061250000001
 21
130.72178049999999
  0
LINE
  8
_0-0_0
  6
CONTINUOUS
 62
    7
 10
215.79061250000001
 20
130.72178049999999
 11
216.11384150000001
 21
129.87082849999999
  0
LINE
  8
_0-0_0
  6
CONTINUOUS
 62
    7
 10
216.11384150000001
 20
129.87082849999999
 11
216.2313805
 21
128.98584149999999
  0
LINE
  8
_0-0_0
  6
CONTINUOUS
 62
    7
 10
216.2313805
 20
128.98584149999999
 11
216.3489185
 21
128.13488949999999
  0
LINE
  8
_0-0_0
  6
CONTINUOUS
 62
    7
 10
216.3489185
 20
128.13488949999999
 11
216.3489185
 21
127.3520145
  0
LINE
  8
_0-0_0
  6
CONTINUOUS
 62
    7
 10
216.3489185
 20
127.3520145
 11
216.3489185
 21
126.50106249999999
  0
LINE
  8
_0-0_0
  6
CONTINUOUS
 62
    7
 10
216.3489185
 20
126.50106249999999
 11
216.2313805
 21
125.1735815
  0
LINE
  8
_0-0_0
  6
CONTINUOUS
 62
    7
 10
216.2313805
 20
125.1735815
 11
216.11384150000001
 21
124.52685750000001
  0
LINE
  8
_0-0_0
  6
CONTINUOUS
 62
    7
 10
216.11384150000001
 20
124.52685750000001
 11
216.0256885
 21
123.9822485
  0
LINE
  8
_0-0_0
  6
CONTINUOUS
 62
    7
 10
216.0256885
 20
123.9822485
 11
215.79061250000001
 21
123.67590849999999
  0
LINE
  8
_0-0_0
  6
CONTINUOUS
 62
    7
 10
215.79061250000001
 20
123.67590849999999
 11
215.58492050000001
 21
123.23341550000001
  0
LINE
  8
_0-0_0
  6
CONTINUOUS
 62
    7
 10
215.58492050000001
 20
123.23341550000001
 11
214.93846049999999
 21
122.34842449999999
  0
LINE
  8
_0-0_0
  6
CONTINUOUS
 62
    7
 10
196.9351345
 20
148.4903845
 11
196.67022650000001
 21
146.58776649999999
  0
LINE
  8
_0-0_0
  6
CONTINUOUS
 62
    7
 10
196.67022650000001
 20
146.58776649999999
 11
196.36388349999999
 21
145.6180775
  0
LINE
  8
_0-0_0
  6
CONTINUOUS
 62
    7
 10
196.36388349999999
 20
145.6180775
 11
195.9213905
 21
145.05977050000001
  0
LINE
  8
_0-0_0
  6
CONTINUOUS
 62
    7
 10
195.9213905
 20
145.05977050000001
 11
195.68312449999999
 21
144.73653949999999
  0
LINE
  8
_0-0_0
  6
CONTINUOUS
 62
    7
 10
195.68312449999999
 20
144.73653949999999
 11
195.03640150000001
 21
144.1782355
  0
LINE
  8
_0-0_0
  6
CONTINUOUS
 62
    7
 10
195.03640150000001
 20
144.1782355
 11
194.2875655
 21
143.7668505
  0
LINE
  8
_0-0_0
  6
CONTINUOUS
 62
    7
 10
194.2875655
 20
143.7668505
 11
193.84506949999999
 21
143.44362050000001
  0
LINE
  8
_0-0_0
  6
CONTINUOUS
 62
    7
 10
193.84506949999999
 20
143.44362050000001
 11
193.19834850000001
 21
143.0910045
  0
LINE
  8
_0-0_0
  6
CONTINUOUS
 62
    7
 10
193.19834850000001
 20
143.0910045
 11
192.6537395
 21
142.8853125
  0
LINE
  8
_0-0_0
  6
CONTINUOUS
 62
    7
 10
192.6537395
 20
142.8853125
 11
192.21124650000002
 21
142.6796205
  0
LINE
  8
_0-0_0
  6
CONTINUOUS
 62
    7
 10
192.21124650000002
 20
142.6796205
 11
191.36029450000001
 21
142.3563935
  0
LINE
  8
_0-0_0
  6
CONTINUOUS
 62
    7
 10
191.36029450000001
 20
142.3563935
 11
190.47530549999999
 21
142.2388545
  0
LINE
  8
_0-0_0
  6
CONTINUOUS
 62
    7
 10
190.47530549999999
 20
142.2388545
 11
189.62435550000001
 21
142.12131650000001
  0
LINE
  8
_0-0_0
  6
CONTINUOUS
 62
    7
 10
189.62435550000001
 20
142.12131650000001
 11
188.84148049999999
 21
142.12131650000001
  0
LINE
  8
_0-0_0
  6
CONTINUOUS
 62
    7
 10
188.84148049999999
 20
142.12131650000001
 11
187.99052950000001
 21
142.12131650000001
  0
LINE
  8
_0-0_0
  6
CONTINUOUS
 62
    7
 10
187.99052950000001
 20
142.12131650000001
 11
186.6630475
 21
142.2388545
  0
LINE
  8
_0-0_0
  6
CONTINUOUS
 62
    7
 10
186.6630475
 20
142.2388545
 11
186.0163245
 21
142.3563935
  0
LINE
  8
_0-0_0
  6
CONTINUOUS
 62
    7
 10
186.0163245
 20
142.3563935
 11
185.47171550000002
 21
142.4445475
  0
LINE
  8
_0-0_0
  6
CONTINUOUS
 62
    7
 10
185.47171550000002
 20
142.4445475
 11
185.16537249999999
 21
142.6796205
  0
LINE
  8
_0-0_0
  6
CONTINUOUS
 62
    7
 10
185.16537249999999
 20
142.6796205
 11
184.7228795
 21
142.8853125
  0
LINE
  8
_0-0_0
  6
CONTINUOUS
 62
    7
 10
184.7228795
 20
142.8853125
 11
183.83788849999999
 21
143.53177449999998
  0
LINE
  8
_0-0_0
  6
CONTINUOUS
 62
    7
 10
183.83788849999999
 20
143.53177449999998
 11
183.08905250000001
 21
144.0900815
  0
LINE
  8
_0-0_0
  6
CONTINUOUS
 62
    7
 10
183.08905250000001
 20
144.0900815
 11
182.54444649999999
 21
144.6190005
  0
LINE
  8
_0-0_0
  6
CONTINUOUS
 62
    7
 10
182.54444649999999
 20
144.6190005
 11
182.20406550000001
 21
145.05977050000001
  0
LINE
  8
_0-0_0
  6
CONTINUOUS
 62
    7
 10
182.20406550000001
 20
145.05977050000001
 11
182.10194949999999
 21
146.14700049999999
  0
LINE
  8
_0-0_0
  6
CONTINUOUS
 62
    7
 10
182.10194949999999
 20
146.14700049999999
 11
181.55734050000001
 21
147.11668950000001
  0
LINE
  8
_0-0_0
  6
CONTINUOUS
 62
    7
 10
181.55734050000001
 20
147.11668950000001
 11
181.30124849999999
 21
148.4903845
  0
LINE
  8
_0-0_0
  6
CONTINUOUS
 62
    7
 10
209.9798495
 20
161.53509650000001
 11
208.07723250000001
 21
161.8000045
  0
LINE
  8
_0-0_0
  6
CONTINUOUS
 62
    7
 10
208.07723250000001
 20
161.8000045
 11
207.10754249999999
 21
162.1063475
  0
LINE
  8
_0-0_0
  6
CONTINUOUS
 62
    7
 10
207.10754249999999
 20
162.1063475
 11
206.54923550000001
 21
162.5488445
  0
LINE
  8
_0-0_0
  6
CONTINUOUS
 62
    7
 10
206.54923550000001
 20
162.5488445
 11
206.22600650000001
 21
162.78711049999998
  0
LINE
  8
_0-0_0
  6
CONTINUOUS
 62
    7
 10
206.22600650000001
 20
162.78711049999998
 11
205.6676995
 21
163.4338315
  0
LINE
  8
_0-0_0
  6
CONTINUOUS
 62
    7
 10
205.6676995
 20
163.4338315
 11
205.2563155
 21
164.1826715
  0
LINE
  8
_0-0_0
  6
CONTINUOUS
 62
    7
 10
205.2563155
 20
164.1826715
 11
204.9330865
 21
164.6251685
  0
LINE
  8
_0-0_0
  6
CONTINUOUS
 62
    7
 10
204.9330865
 20
164.6251685
 11
204.58047049999999
 21
165.2718825
  0
LINE
  8
_0-0_0
  6
CONTINUOUS
 62
    7
 10
204.58047049999999
 20
165.2718825
 11
204.37477949999999
 21
165.81649849999999
  0
LINE
  8
_0-0_0
  6
CONTINUOUS
 62
    7
 10
204.37477949999999
 20
165.81649849999999
 11
204.16908849999999
 21
166.25898849999999
  0
LINE
  8
_0-0_0
  6
CONTINUOUS
 62
    7
 10
204.16908849999999
 20
166.25898849999999
 11
203.84585749999999
 21
167.10994049999999
  0
LINE
  8
_0-0_0
  6
CONTINUOUS
 62
    7
 10
203.84585749999999
 20
167.10994049999999
 11
203.7283185
 21
167.99492750000002
  0
LINE
  8
_0-0_0
  6
CONTINUOUS
 62
    7
 10
203.7283185
 20
167.99492750000002
 11
203.6107815
 21
168.8458795
  0
LINE
  8
_0-0_0
  6
CONTINUOUS
 62
    7
 10
203.6107815
 20
168.8458795
 11
203.6107815
 21
169.62875450000001
  0
LINE
  8
_0-0_0
  6
CONTINUOUS
 62
    7
 10
203.6107815
 20
169.62875450000001
 11
203.6107815
 21
170.47970649999999
  0
LINE
  8
_0-0_0
  6
CONTINUOUS
 62
    7
 10
203.6107815
 20
170.47970649999999
 11
203.7283185
 21
171.80719049999999
  0
LINE
  8
_0-0_0
  6
CONTINUOUS
 62
    7
 10
203.7283185
 20
171.80719049999999
 11
203.84585749999999
 21
172.4539115
  0
LINE
  8
_0-0_0
  6
CONTINUOUS
 62
    7
 10
203.84585749999999
 20
172.4539115
 11
203.9340115
 21
172.99852049999998
  0
LINE
  8
_0-0_0
  6
CONTINUOUS
 62
    7
 10
203.9340115
 20
172.99852049999998
 11
204.16908849999999
 21
173.3048565
  0
LINE
  8
_0-0_0
  6
CONTINUOUS
 62
    7
 10
204.16908849999999
 20
173.3048565
 11
204.37477949999999
 21
173.7473535
  0
LINE
  8
_0-0_0
  6
CONTINUOUS
 62
    7
 10
204.37477949999999
 20
173.7473535
 11
205.02123950000001
 21
174.6323405
  0
LINE
  8
_0-0_0
  6
CONTINUOUS
 62
    7
 10
205.02123950000001
 20
174.6323405
 11
205.57954549999999
 21
175.3811805
  0
LINE
  8
_0-0_0
  6
CONTINUOUS
 62
    7
 10
205.57954549999999
 20
175.3811805
 11
206.10846749999999
 21
175.92578950000001
  0
LINE
  8
_0-0_0
  6
CONTINUOUS
 62
    7
 10
206.10846749999999
 20
175.92578950000001
 11
206.54923550000001
 21
176.26616749999999
  0
LINE
  8
_0-0_0
  6
CONTINUOUS
 62
    7
 10
206.54923550000001
 20
176.26616749999999
 11
207.63646449999999
 21
176.36828750000001
  0
LINE
  8
_0-0_0
  6
CONTINUOUS
 62
    7
 10
207.63646449999999
 20
176.36828750000001
 11
208.6061545
 21
176.91288850000001
  0
LINE
  8
_0-0_0
  6
CONTINUOUS
 62
    7
 10
208.6061545
 20
176.91288850000001
 11
209.9798495
 21
177.16898449999999
  0
LINE
  8
_0-0_0
  6
CONTINUOUS
 62
    7
 10
196.9351345
 20
148.4903845
 11
196.79816650000001
 21
150.0890215
  0
LINE
  8
_0-0_0
  6
CONTINUOUS
 62
    7
 10
196.79816650000001
 20
150.0890215
 11
196.5829315
 21
150.9049775
  0
LINE
  8
_0-0_0
  6
CONTINUOUS
 62
    7
 10
196.5829315
 20
150.9049775
 11
196.28942849999999
 21
151.40361949999999
  0
LINE
  8
_0-0_0
  6
CONTINUOUS
 62
    7
 10
196.28942849999999
 20
151.40361949999999
 11
195.70242450000001
 21
152.5595635
  0
LINE
  8
_0-0_0
  6
CONTINUOUS
 62
    7
 10
195.70242450000001
 20
152.5595635
 11
195.4871905
 21
152.9222115
  0
LINE
  8
_0-0_0
  6
CONTINUOUS
 62
    7
 10
195.4871905
 20
152.9222115
 11
194.9784525
 21
153.35285349999998
  0
LINE
  8
_0-0_0
  6
CONTINUOUS
 62
    7
 10
194.9784525
 20
153.35285349999998
 11
194.17621450000001
 21
153.7835015
  0
LINE
  8
_0-0_0
  6
CONTINUOUS
 62
    7
 10
194.17621450000001
 20
153.7835015
 11
192.72826950000001
 21
154.6674515
  0
LINE
  8
_0-0_0
  6
CONTINUOUS
 62
    7
 10
192.72826950000001
 20
154.6674515
 11
191.57382749999999
 21
155.03009950000001
  0
LINE
  8
_0-0_0
  6
CONTINUOUS
 62
    7
 10
191.57382749999999
 20
155.03009950000001
 11
190.9281235
 21
155.09810049999999
  0
LINE
  8
_0-0_0
  6
CONTINUOUS
 62
    7
 10
190.9281235
 20
155.09810049999999
 11
190.20415149999999
 21
155.16609349999999
  0
LINE
  8
_0-0_0
  6
CONTINUOUS
 62
    7
 10
190.20415149999999
 20
155.16609349999999
 11
189.18667550000001
 21
155.3020875
  0
LINE
  8
_0-0_0
  6
CONTINUOUS
 62
    7
 10
189.18667550000001
 20
155.3020875
 11
188.67793850000001
 21
155.39274749999998
  0
LINE
  8
_0-0_0
  6
CONTINUOUS
 62
    7
 10
188.67793850000001
 20
155.39274749999998
 11
188.1105005
 21
155.39274749999998
  0
LINE
  8
_0-0_0
  6
CONTINUOUS
 62
    7
 10
188.1105005
 20
155.39274749999998
 11
187.7387315
 21
155.39274749999998
  0
LINE
  8
_0-0_0
  6
CONTINUOUS
 62
    7
 10
187.7387315
 20
155.39274749999998
 11
186.8777925
 21
155.39274749999998
  0
LINE
  8
_0-0_0
  6
CONTINUOUS
 62
    7
 10
186.8777925
 20
155.39274749999998
 11
186.21252050000001
 21
155.39274749999998
  0
LINE
  8
_0-0_0
  6
CONTINUOUS
 62
    7
 10
186.21252050000001
 20
155.39274749999998
 11
185.5668125
 21
155.2340935
  0
LINE
  8
_0-0_0
  6
CONTINUOUS
 62
    7
 10
185.5668125
 20
155.2340935
 11
185.1950435
 21
155.09810049999999
  0
LINE
  8
_0-0_0
  6
CONTINUOUS
 62
    7
 10
185.1950435
 20
155.09810049999999
 11
184.84284049999999
 21
154.93943949999999
  0
LINE
  8
_0-0_0
  6
CONTINUOUS
 62
    7
 10
184.84284049999999
 20
154.93943949999999
 11
184.3341045
 21
154.73545250000001
  0
LINE
  8
_0-0_0
  6
CONTINUOUS
 62
    7
 10
184.3341045
 20
154.73545250000001
 11
183.61013249999999
 21
154.3728045
  0
LINE
  8
_0-0_0
  6
CONTINUOUS
 62
    7
 10
183.61013249999999
 20
154.3728045
 11
182.88615949999999
 21
153.64750850000001
  0
LINE
  8
_0-0_0
  6
CONTINUOUS
 62
    7
 10
182.88615949999999
 20
153.64750850000001
 11
182.80789350000001
 21
153.51151449999998
  0
LINE
  8
_0-0_0
  6
CONTINUOUS
 62
    7
 10
182.80789350000001
 20
153.51151449999998
 11
182.53395649999999
 21
153.05820549999999
  0
LINE
  8
_0-0_0
  6
CONTINUOUS
 62
    7
 10
182.53395649999999
 20
153.05820549999999
 11
182.37742449999999
 21
152.78621849999999
  0
LINE
  8
_0-0_0
  6
CONTINUOUS
 62
    7
 10
182.37742449999999
 20
152.78621849999999
 11
182.2404535
 21
152.26490949999999
  0
LINE
  8
_0-0_0
  6
CONTINUOUS
 62
    7
 10
182.2404535
 20
152.26490949999999
 11
182.0839215
 21
152.0609225
  0
LINE
  8
_0-0_0
  6
CONTINUOUS
 62
    7
 10
182.0839215
 20
152.0609225
 11
181.8686845
 21
151.40361949999999
  0
LINE
  8
_0-0_0
  6
CONTINUOUS
 62
    7
 10
181.8686845
 20
151.40361949999999
 11
181.80998449999998
 21
150.97297850000001
  0
LINE
  8
_0-0_0
  6
CONTINUOUS
 62
    7
 10
181.80998449999998
 20
150.97297850000001
 11
181.65345150000002
 21
150.17968150000002
  0
LINE
  8
_0-0_0
  6
CONTINUOUS
 62
    7
 10
181.65345150000002
 20
150.17968150000002
 11
181.30124849999999
 21
148.4903845
  0
LINE
  8
_0-0_0
  6
CONTINUOUS
 62
    7
 10
200.92676549999999
 20
157.90862349999998
 11
200.20279249999999
 21
157.3419815
  0
LINE
  8
_0-0_0
  6
CONTINUOUS
 62
    7
 10
200.20279249999999
 20
157.3419815
 11
199.75275550000001
 21
157.11532749999998
  0
LINE
  8
_0-0_0
  6
CONTINUOUS
 62
    7
 10
199.75275550000001
 20
157.11532749999998
 11
199.0287835
 21
156.7526795
  0
LINE
  8
_0-0_0
  6
CONTINUOUS
 62
    7
 10
199.0287835
 20
156.7526795
 11
198.75484850000001
 21
156.6846855
  0
LINE
  8
_0-0_0
  6
CONTINUOUS
 62
    7
 10
198.75484850000001
 20
156.6846855
 11
198.08957649999999
 21
156.61668550000002
  0
LINE
  8
_0-0_0
  6
CONTINUOUS
 62
    7
 10
198.08957649999999
 20
156.61668550000002
 11
197.5808385
 21
156.61668550000002
  0
LINE
  8
_0-0_0
  6
CONTINUOUS
 62
    7
 10
197.5808385
 20
156.61668550000002
 11
196.7198995
 21
156.54869250000002
  0
LINE
  8
_0-0_0
  6
CONTINUOUS
 62
    7
 10
196.7198995
 20
156.54869250000002
 11
195.91765950000001
 21
156.48069850000002
  0
LINE
  8
_0-0_0
  6
CONTINUOUS
 62
    7
 10
195.91765950000001
 20
156.48069850000002
 11
195.27195549999999
 21
156.48069850000002
  0
LINE
  8
_0-0_0
  6
CONTINUOUS
 62
    7
 10
195.27195549999999
 20
156.48069850000002
 11
194.6262495
 21
156.48069850000002
  0
LINE
  8
_0-0_0
  6
CONTINUOUS
 62
    7
 10
194.6262495
 20
156.48069850000002
 11
193.90227849999999
 21
156.61668550000002
  0
LINE
  8
_0-0_0
  6
CONTINUOUS
 62
    7
 10
193.90227849999999
 20
156.61668550000002
 11
193.53050949999999
 21
156.7526795
  0
LINE
  8
_0-0_0
  6
CONTINUOUS
 62
    7
 10
193.53050949999999
 20
156.7526795
 11
192.94350449999999
 21
156.91134049999999
  0
LINE
  8
_0-0_0
  6
CONTINUOUS
 62
    7
 10
192.94350449999999
 20
156.91134049999999
 11
192.1608315
 21
157.2059945
  0
LINE
  8
_0-0_0
  6
CONTINUOUS
 62
    7
 10
192.1608315
 20
157.2059945
 11
191.49555950000001
 21
157.5686355
  0
LINE
  8
_0-0_0
  6
CONTINUOUS
 62
    7
 10
191.49555950000001
 20
157.5686355
 11
191.00638950000001
 21
157.84062349999999
  0
LINE
  8
_0-0_0
  6
CONTINUOUS
 62
    7
 10
191.00638950000001
 20
157.84062349999999
 11
190.63462050000001
 21
158.2032715
  0
LINE
  8
_0-0_0
  6
CONTINUOUS
 62
    7
 10
190.63462050000001
 20
158.2032715
 11
190.20415149999999
 21
158.63391949999999
  0
LINE
  8
_0-0_0
  6
CONTINUOUS
 62
    7
 10
190.20415149999999
 20
158.63391949999999
 11
189.91064850000001
 21
158.9965675
  0
LINE
  8
_0-0_0
  6
CONTINUOUS
 62
    7
 10
189.91064850000001
 20
158.9965675
 11
189.61714549999999
 21
159.44987650000002
  0
LINE
  8
_0-0_0
  6
CONTINUOUS
 62
    7
 10
189.61714549999999
 20
159.44987650000002
 11
189.04970750000001
 21
160.08451149999999
  0
LINE
  8
_0-0_0
  6
CONTINUOUS
 62
    7
 10
189.04970750000001
 20
160.08451149999999
 11
188.8344725
 21
160.37915950000001
  0
LINE
  8
_0-0_0
  6
CONTINUOUS
 62
    7
 10
188.8344725
 20
160.37915950000001
 11
188.4627035
 21
160.87780149999998
  0
LINE
  8
_0-0_0
  6
CONTINUOUS
 62
    7
 10
188.4627035
 20
160.87780149999998
 11
188.3257365
 21
161.39911050000001
  0
LINE
  8
_0-0_0
  6
CONTINUOUS
 62
    7
 10
188.3257365
 20
161.39911050000001
 11
188.1105005
 21
161.9657455
  0
LINE
  8
_0-0_0
  6
CONTINUOUS
 62
    7
 10
188.1105005
 20
161.9657455
 11
187.95396650000001
 21
162.4190605
  0
LINE
  8
_0-0_0
  6
CONTINUOUS
 62
    7
 10
187.95396650000001
 20
162.4190605
 11
187.81699950000001
 21
163.2803505
  0
LINE
  8
_0-0_0
  6
CONTINUOUS
 62
    7
 10
187.81699950000001
 20
163.2803505
 11
187.6017645
 21
164.14163350000001
  0
LINE
  8
_0-0_0
  6
CONTINUOUS
 62
    7
 10
187.6017645
 20
164.14163350000001
 11
187.52349649999999
 21
164.66294249999999
  0
LINE
  8
_0-0_0
  6
CONTINUOUS
 62
    7
 10
187.52349649999999
 20
164.66294249999999
 11
187.6017645
 21
165.1615845
  0
LINE
  8
_0-0_0
  6
CONTINUOUS
 62
    7
 10
187.6017645
 20
165.1615845
 11
187.81699950000001
 21
165.88688050000002
  0
LINE
  8
_0-0_0
  6
CONTINUOUS
 62
    7
 10
187.81699950000001
 20
165.88688050000002
 11
188.16920049999999
 21
166.61217649999998
  0
LINE
  8
_0-0_0
  6
CONTINUOUS
 62
    7
 10
188.16920049999999
 20
166.61217649999998
 11
188.4627035
 21
167.4054725
  0
LINE
  8
_0-0_0
  6
CONTINUOUS
 62
    7
 10
188.4627035
 20
167.4054725
 11
189.04970750000001
 21
168.19876249999999
  0
LINE
  8
_0-0_0
  6
CONTINUOUS
 62
    7
 10
189.04970750000001
 20
168.19876249999999
 11
189.1084075
 21
168.56141049999999
  0
LINE
  8
_0-0_0
  6
CONTINUOUS
 62
    7
 10
189.1084075
 20
168.56141049999999
 11
189.61714549999999
 21
168.9240585
  0
LINE
  8
_0-0_0
  6
CONTINUOUS
 62
    7
 10
189.61714549999999
 20
168.9240585
 11
189.98891449999999
 21
169.21871249999998
  0
LINE
  8
_0-0_0
  6
CONTINUOUS
 62
    7
 10
189.98891449999999
 20
169.21871249999998
 11
190.77158750000001
 21
169.58136050000002
  0
LINE
  8
_0-0_0
  6
CONTINUOUS
 62
    7
 10
190.77158750000001
 20
169.58136050000002
 11
191.28032450000001
 21
169.7853485
  0
LINE
  8
_0-0_0
  6
CONTINUOUS
 62
    7
 10
191.28032450000001
 20
169.7853485
 11
191.7890625
 21
169.9440085
  0
LINE
  8
_0-0_0
  6
CONTINUOUS
 62
    7
 10
191.7890625
 20
169.9440085
 11
192.00429750000001
 21
170.01200249999999
  0
LINE
  8
_0-0_0
  6
CONTINUOUS
 62
    7
 10
192.00429750000001
 20
170.01200249999999
 11
192.72826950000001
 21
170.14799649999998
  0
LINE
  8
_0-0_0
  6
CONTINUOUS
 62
    7
 10
192.72826950000001
 20
170.14799649999998
 11
194.33274850000001
 21
170.51064450000001
  0
LINE
  8
_0-0_0
  6
CONTINUOUS
 62
    7
 10
194.33274850000001
 20
170.51064450000001
 11
194.90018649999999
 21
170.51064450000001
  0
LINE
  8
_0-0_0
  6
CONTINUOUS
 62
    7
 10
194.90018649999999
 20
170.51064450000001
 11
195.6241565
 21
170.51064450000001
  0
LINE
  8
_0-0_0
  6
CONTINUOUS
 62
    7
 10
195.6241565
 20
170.51064450000001
 11
196.07419350000001
 21
170.51064450000001
  0
LINE
  8
_0-0_0
  6
CONTINUOUS
 62
    7
 10
196.07419350000001
 20
170.51064450000001
 11
196.79816650000001
 21
170.3746505
  0
LINE
  8
_0-0_0
  6
CONTINUOUS
 62
    7
 10
196.79816650000001
 20
170.3746505
 11
197.36560449999999
 21
170.3746505
  0
LINE
  8
_0-0_0
  6
CONTINUOUS
 62
    7
 10
197.36560449999999
 20
170.3746505
 11
198.08957649999999
 21
170.08000249999998
  0
LINE
  8
_0-0_0
  6
CONTINUOUS
 62
    7
 10
198.08957649999999
 20
170.08000249999998
 11
198.46134549999999
 21
169.87600850000001
  0
LINE
  8
_0-0_0
  6
CONTINUOUS
 62
    7
 10
198.46134549999999
 20
169.87600850000001
 11
198.97008249999999
 21
169.35470649999999
  0
LINE
  8
_0-0_0
  6
CONTINUOUS
 62
    7
 10
198.97008249999999
 20
169.35470649999999
 11
200.2614935
 21
168.56141049999999
  0
LINE
  8
_0-0_0
  6
CONTINUOUS
 62
    7
 10
200.2614935
 20
168.56141049999999
 11
201.1419995
 21
167.33747249999999
  0
LINE
  8
_0-0_0
  6
CONTINUOUS
 62
    7
 10
201.1419995
 20
167.33747249999999
 11
201.3572345
 21
166.45352249999999
  0
LINE
  8
_0-0_0
  6
CONTINUOUS
 62
    7
 10
201.3572345
 20
166.45352249999999
 11
201.57246950000001
 21
165.75088649999998
  0
LINE
  8
_0-0_0
  6
CONTINUOUS
 62
    7
 10
201.57246950000001
 20
165.75088649999998
 11
201.70943650000001
 21
165.1615845
  0
LINE
  8
_0-0_0
  6
CONTINUOUS
 62
    7
 10
201.70943650000001
 20
165.1615845
 11
201.8659725
 21
164.14163350000001
  0
LINE
  8
_0-0_0
  6
CONTINUOUS
 62
    7
 10
201.8659725
 20
164.14163350000001
 11
202.0029385
 21
162.91769549999998
  0
LINE
  8
_0-0_0
  6
CONTINUOUS
 62
    7
 10
202.0029385
 20
162.91769549999998
 11
202.08120650000001
 21
162.12440649999999
  0
LINE
  8
_0-0_0
  6
CONTINUOUS
 62
    7
 10
202.08120650000001
 20
162.12440649999999
 11
202.08120650000001
 21
161.24044950000001
  0
LINE
  8
_0-0_0
  6
CONTINUOUS
 62
    7
 10
202.08120650000001
 20
161.24044950000001
 11
202.13990749999999
 21
160.4471595
  0
LINE
  8
_0-0_0
  6
CONTINUOUS
 62
    7
 10
202.13990749999999
 20
160.4471595
 11
202.13990749999999
 21
159.94851849999998
  0
LINE
  8
_0-0_0
  6
CONTINUOUS
 62
    7
 10
202.13990749999999
 20
159.94851849999998
 11
202.13990749999999
 21
159.88052449999998
  0
LINE
  8
_0-0_0
  6
CONTINUOUS
 62
    7
 10
202.13990749999999
 20
159.88052449999998
 11
201.8659725
 21
159.44987650000002
  0
LINE
  8
_0-0_0
  6
CONTINUOUS
 62
    7
 10
201.8659725
 20
159.44987650000002
 11
201.2789665
 21
158.36193249999999
  0
LINE
  8
_0-0_0
  6
CONTINUOUS
 62
    7
 10
201.2789665
 20
158.36193249999999
 11
200.92676549999999
 21
157.90862349999998
  0
LINE
  8
_0-0_0
  6
CONTINUOUS
 62
    7
 10
209.9798495
 20
135.44566850000001
 11
208.3812125
 21
135.30870249999998
  0
LINE
  8
_0-0_0
  6
CONTINUOUS
 62
    7
 10
208.3812125
 20
135.30870249999998
 11
207.56525350000001
 21
135.09346549999998
  0
LINE
  8
_0-0_0
  6
CONTINUOUS
 62
    7
 10
207.56525350000001
 20
135.09346549999998
 11
207.06661249999999
 21
134.79996249999999
  0
LINE
  8
_0-0_0
  6
CONTINUOUS
 62
    7
 10
207.06661249999999
 20
134.79996249999999
 11
205.91067150000001
 21
134.21296050000001
  0
LINE
  8
_0-0_0
  6
CONTINUOUS
 62
    7
 10
205.91067150000001
 20
134.21296050000001
 11
205.5480235
 21
133.9977245
  0
LINE
  8
_0-0_0
  6
CONTINUOUS
 62
    7
 10
205.5480235
 20
133.9977245
 11
205.1173795
 21
133.4889885
  0
LINE
  8
_0-0_0
  6
CONTINUOUS
 62
    7
 10
205.1173795
 20
133.4889885
 11
204.6867345
 21
132.6867465
  0
LINE
  8
_0-0_0
  6
CONTINUOUS
 62
    7
 10
204.6867345
 20
132.6867465
 11
203.80277949999999
 21
131.23880149999999
  0
LINE
  8
_0-0_0
  6
CONTINUOUS
 62
    7
 10
203.80277949999999
 20
131.23880149999999
 11
203.44013150000001
 21
130.08435950000001
  0
LINE
  8
_0-0_0
  6
CONTINUOUS
 62
    7
 10
203.44013150000001
 20
130.08435950000001
 11
203.37213449999999
 21
129.43865750000001
  0
LINE
  8
_0-0_0
  6
CONTINUOUS
 62
    7
 10
203.37213449999999
 20
129.43865750000001
 11
203.30413849999999
 21
128.7146855
  0
LINE
  8
_0-0_0
  6
CONTINUOUS
 62
    7
 10
203.30413849999999
 20
128.7146855
 11
203.16814550000001
 21
127.6972105
  0
LINE
  8
_0-0_0
  6
CONTINUOUS
 62
    7
 10
203.16814550000001
 20
127.6972105
 11
203.0774835
 21
127.18847049999999
  0
LINE
  8
_0-0_0
  6
CONTINUOUS
 62
    7
 10
203.0774835
 20
127.18847049999999
 11
203.0774835
 21
126.62103449999999
  0
LINE
  8
_0-0_0
  6
CONTINUOUS
 62
    7
 10
203.0774835
 20
126.62103449999999
 11
203.0774835
 21
126.24926550000001
  0
LINE
  8
_0-0_0
  6
CONTINUOUS
 62
    7
 10
203.0774835
 20
126.24926550000001
 11
203.0774835
 21
125.38832650000001
  0
LINE
  8
_0-0_0
  6
CONTINUOUS
 62
    7
 10
203.0774835
 20
125.38832650000001
 11
203.0774835
 21
124.72305449999999
  0
LINE
  8
_0-0_0
  6
CONTINUOUS
 62
    7
 10
203.0774835
 20
124.72305449999999
 11
203.2361425
 21
124.0773485
  0
LINE
  8
_0-0_0
  6
CONTINUOUS
 62
    7
 10
203.2361425
 20
124.0773485
 11
203.37213449999999
 21
123.7055795
  0
LINE
  8
_0-0_0
  6
CONTINUOUS
 62
    7
 10
203.37213449999999
 20
123.7055795
 11
203.53079349999999
 21
123.3533765
  0
LINE
  8
_0-0_0
  6
CONTINUOUS
 62
    7
 10
203.53079349999999
 20
123.3533765
 11
203.73478249999999
 21
122.8446405
  0
LINE
  8
_0-0_0
  6
CONTINUOUS
 62
    7
 10
203.73478249999999
 20
122.8446405
 11
204.0974305
 21
122.12066849999999
  0
LINE
  8
_0-0_0
  6
CONTINUOUS
 62
    7
 10
200.5616125
 20
139.43729949999999
 11
201.12824950000001
 21
138.71332749999999
  0
LINE
  8
_0-0_0
  6
CONTINUOUS
 62
    7
 10
201.12824950000001
 20
138.71332749999999
 11
201.3549055
 21
138.26329149999998
  0
LINE
  8
_0-0_0
  6
CONTINUOUS
 62
    7
 10
201.3549055
 20
138.26329149999998
 11
201.71755350000001
 21
137.53931549999999
  0
LINE
  8
_0-0_0
  6
CONTINUOUS
 62
    7
 10
201.71755350000001
 20
137.53931549999999
 11
201.7855485
 21
137.26538249999999
  0
LINE
  8
_0-0_0
  6
CONTINUOUS
 62
    7
 10
201.7855485
 20
137.26538249999999
 11
201.8535455
 21
136.6001105
  0
LINE
  8
_0-0_0
  6
CONTINUOUS
 62
    7
 10
201.8535455
 20
136.6001105
 11
201.8535455
 21
136.0913745
  0
LINE
  8
_0-0_0
  6
CONTINUOUS
 62
    7
 10
201.8535455
 20
136.0913745
 11
201.92154249999999
 21
135.23043250000001
  0
LINE
  8
_0-0_0
  6
CONTINUOUS
 62
    7
 10
201.92154249999999
 20
135.23043250000001
 11
201.98953950000001
 21
134.42819349999999
  0
LINE
  8
_0-0_0
  6
CONTINUOUS
 62
    7
 10
201.98953950000001
 20
134.42819349999999
 11
201.98953950000001
 21
133.7824875
  0
LINE
  8
_0-0_0
  6
CONTINUOUS
 62
    7
 10
201.98953950000001
 20
133.7824875
 11
201.98953950000001
 21
133.1367855
  0
LINE
  8
_0-0_0
  6
CONTINUOUS
 62
    7
 10
201.98953950000001
 20
133.1367855
 11
201.8535455
 21
132.4128125
  0
LINE
  8
_0-0_0
  6
CONTINUOUS
 62
    7
 10
201.8535455
 20
132.4128125
 11
201.71755350000001
 21
132.0410435
  0
LINE
  8
_0-0_0
  6
CONTINUOUS
 62
    7
 10
201.71755350000001
 20
132.0410435
 11
201.55889450000001
 21
131.4540385
  0
LINE
  8
_0-0_0
  6
CONTINUOUS
 62
    7
 10
201.55889450000001
 20
131.4540385
 11
201.26424349999999
 21
130.67136549999998
  0
LINE
  8
_0-0_0
  6
CONTINUOUS
 62
    7
 10
201.26424349999999
 20
130.67136549999998
 11
200.90159549999998
 21
130.00609349999999
  0
LINE
  8
_0-0_0
  6
CONTINUOUS
 62
    7
 10
200.90159549999998
 20
130.00609349999999
 11
200.62960749999999
 21
129.51692349999999
  0
LINE
  8
_0-0_0
  6
CONTINUOUS
 62
    7
 10
200.62960749999999
 20
129.51692349999999
 11
200.26695949999998
 21
129.14515449999999
  0
LINE
  8
_0-0_0
  6
CONTINUOUS
 62
    7
 10
200.26695949999998
 20
129.14515449999999
 11
199.83631650000001
 21
128.7146855
  0
LINE
  8
_0-0_0
  6
CONTINUOUS
 62
    7
 10
199.83631650000001
 20
128.7146855
 11
199.4736685
 21
128.42118249999999
  0
LINE
  8
_0-0_0
  6
CONTINUOUS
 62
    7
 10
199.4736685
 20
128.42118249999999
 11
199.02035649999999
 21
128.1276795
  0
LINE
  8
_0-0_0
  6
CONTINUOUS
 62
    7
 10
199.02035649999999
 20
128.1276795
 11
198.38572249999999
 21
127.5602435
  0
LINE
  8
_0-0_0
  6
CONTINUOUS
 62
    7
 10
198.38572249999999
 20
127.5602435
 11
198.0910715
 21
127.3450065
  0
LINE
  8
_0-0_0
  6
CONTINUOUS
 62
    7
 10
198.0910715
 20
127.3450065
 11
197.59242950000001
 21
126.9732375
  0
LINE
  8
_0-0_0
  6
CONTINUOUS
 62
    7
 10
197.59242950000001
 20
126.9732375
 11
197.0711245
 21
126.8362715
  0
LINE
  8
_0-0_0
  6
CONTINUOUS
 62
    7
 10
197.0711245
 20
126.8362715
 11
196.50448549999999
 21
126.62103449999999
  0
LINE
  8
_0-0_0
  6
CONTINUOUS
 62
    7
 10
196.50448549999999
 20
126.62103449999999
 11
196.0511755
 21
126.46450249999999
  0
LINE
  8
_0-0_0
  6
CONTINUOUS
 62
    7
 10
196.0511755
 20
126.46450249999999
 11
195.1898875
 21
126.32753149999999
  0
LINE
  8
_0-0_0
  6
CONTINUOUS
 62
    7
 10
195.1898875
 20
126.32753149999999
 11
194.3285975
 21
126.11229849999999
  0
LINE
  8
_0-0_0
  6
CONTINUOUS
 62
    7
 10
194.3285975
 20
126.11229849999999
 11
193.80729049999999
 21
126.03402850000001
  0
LINE
  8
_0-0_0
  6
CONTINUOUS
 62
    7
 10
193.80729049999999
 20
126.03402850000001
 11
193.3086505
 21
126.11229849999999
  0
LINE
  8
_0-0_0
  6
CONTINUOUS
 62
    7
 10
193.3086505
 20
126.11229849999999
 11
192.58335449999998
 21
126.32753149999999
  0
LINE
  8
_0-0_0
  6
CONTINUOUS
 62
    7
 10
192.58335449999998
 20
126.32753149999999
 11
191.8580565
 21
126.6797345
  0
LINE
  8
_0-0_0
  6
CONTINUOUS
 62
    7
 10
191.8580565
 20
126.6797345
 11
191.06476549999999
 21
126.9732375
  0
LINE
  8
_0-0_0
  6
CONTINUOUS
 62
    7
 10
191.06476549999999
 20
126.9732375
 11
190.27147250000002
 21
127.5602435
  0
LINE
  8
_0-0_0
  6
CONTINUOUS
 62
    7
 10
190.27147250000002
 20
127.5602435
 11
189.90882450000001
 21
127.6189435
  0
LINE
  8
_0-0_0
  6
CONTINUOUS
 62
    7
 10
189.90882450000001
 20
127.6189435
 11
189.5461765
 21
128.1276795
  0
LINE
  8
_0-0_0
  6
CONTINUOUS
 62
    7
 10
189.5461765
 20
128.1276795
 11
189.25152349999999
 21
128.4994485
  0
LINE
  8
_0-0_0
  6
CONTINUOUS
 62
    7
 10
189.25152349999999
 20
128.4994485
 11
188.88887550000001
 21
129.28212149999999
  0
LINE
  8
_0-0_0
  6
CONTINUOUS
 62
    7
 10
188.88887550000001
 20
129.28212149999999
 11
188.6848865
 21
129.79085749999999
  0
LINE
  8
_0-0_0
  6
CONTINUOUS
 62
    7
 10
188.6848865
 20
129.79085749999999
 11
188.5262275
 21
130.29959650000001
  0
LINE
  8
_0-0_0
  6
CONTINUOUS
 62
    7
 10
188.5262275
 20
130.29959650000001
 11
188.45823050000001
 21
130.51483350000001
  0
LINE
  8
_0-0_0
  6
CONTINUOUS
 62
    7
 10
188.45823050000001
 20
130.51483350000001
 11
188.3222385
 21
131.23880149999999
  0
LINE
  8
_0-0_0
  6
CONTINUOUS
 62
    7
 10
188.3222385
 20
131.23880149999999
 11
187.95959049999999
 21
132.84328249999999
  0
LINE
  8
_0-0_0
  6
CONTINUOUS
 62
    7
 10
187.95959049999999
 20
132.84328249999999
 11
187.95959049999999
 21
133.41072249999999
  0
LINE
  8
_0-0_0
  6
CONTINUOUS
 62
    7
 10
187.95959049999999
 20
133.41072249999999
 11
187.95959049999999
 21
134.1346905
  0
LINE
  8
_0-0_0
  6
CONTINUOUS
 62
    7
 10
187.95959049999999
 20
134.1346905
 11
187.95959049999999
 21
134.58472949999998
  0
LINE
  8
_0-0_0
  6
CONTINUOUS
 62
    7
 10
187.95959049999999
 20
134.58472949999998
 11
188.09558250000001
 21
135.30870249999998
  0
LINE
  8
_0-0_0
  6
CONTINUOUS
 62
    7
 10
188.09558250000001
 20
135.30870249999998
 11
188.09558250000001
 21
135.8761385
  0
LINE
  8
_0-0_0
  6
CONTINUOUS
 62
    7
 10
188.09558250000001
 20
135.8761385
 11
188.39023549999999
 21
136.6001105
  0
LINE
  8
_0-0_0
  6
CONTINUOUS
 62
    7
 10
188.39023549999999
 20
136.6001105
 11
188.5942245
 21
136.9718795
  0
LINE
  8
_0-0_0
  6
CONTINUOUS
 62
    7
 10
188.5942245
 20
136.9718795
 11
189.1155315
 21
137.4806155
  0
LINE
  8
_0-0_0
  6
CONTINUOUS
 62
    7
 10
189.1155315
 20
137.4806155
 11
189.90882450000001
 21
138.77202750000001
  0
LINE
  8
_0-0_0
  6
CONTINUOUS
 62
    7
 10
189.90882450000001
 20
138.77202750000001
 11
191.13276049999999
 21
139.6525355
  0
LINE
  8
_0-0_0
  6
CONTINUOUS
 62
    7
 10
191.13276049999999
 20
139.6525355
 11
192.0167155
 21
139.86776850000001
  0
LINE
  8
_0-0_0
  6
CONTINUOUS
 62
    7
 10
192.0167155
 20
139.86776850000001
 11
192.7193465
 21
140.08300149999999
  0
LINE
  8
_0-0_0
  6
CONTINUOUS
 62
    7
 10
192.7193465
 20
140.08300149999999
 11
193.3086505
 21
140.21997249999998
  0
LINE
  8
_0-0_0
  6
CONTINUOUS
 62
    7
 10
193.3086505
 20
140.21997249999998
 11
194.3285975
 21
140.37650450000001
  0
LINE
  8
_0-0_0
  6
CONTINUOUS
 62
    7
 10
194.3285975
 20
140.37650450000001
 11
195.5525355
 21
140.5134745
  0
LINE
  8
_0-0_0
  6
CONTINUOUS
 62
    7
 10
195.5525355
 20
140.5134745
 11
196.34582649999999
 21
140.59174150000001
  0
LINE
  8
_0-0_0
  6
CONTINUOUS
 62
    7
 10
196.34582649999999
 20
140.59174150000001
 11
197.2297815
 21
140.59174150000001
  0
LINE
  8
_0-0_0
  6
CONTINUOUS
 62
    7
 10
197.2297815
 20
140.59174150000001
 11
198.02307450000001
 21
140.6504415
  0
LINE
  8
_0-0_0
  6
CONTINUOUS
 62
    7
 10
198.02307450000001
 20
140.6504415
 11
198.5217165
 21
140.6504415
  0
LINE
  8
_0-0_0
  6
CONTINUOUS
 62
    7
 10
198.5217165
 20
140.6504415
 11
198.58971349999999
 21
140.6504415
  0
LINE
  8
_0-0_0
  6
CONTINUOUS
 62
    7
 10
198.58971349999999
 20
140.6504415
 11
199.02035649999999
 21
140.37650450000001
  0
LINE
  8
_0-0_0
  6
CONTINUOUS
 62
    7
 10
199.02035649999999
 20
140.37650450000001
 11
200.10830250000001
 21
139.7895025
  0
LINE
  8
_0-0_0
  6
CONTINUOUS
 62
    7
 10
200.10830250000001
 20
139.7895025
 11
200.5616125
 21
139.43729949999999
  0
LINE
  8
_0-0_0
  6
CONTINUOUS
 62
    7
 10
183.8053645
 20
160.73635949999999
 11
184.14574249999998
 21
160.0605175
  0
LINE
  8
_0-0_0
  6
CONTINUOUS
 62
    7
 10
184.14574249999998
 20
160.0605175
 11
184.3499735
 21
159.7372905
  0
LINE
  8
_0-0_0
  6
CONTINUOUS
 62
    7
 10
184.3499735
 20
159.7372905
 11
185.77956950000001
 21
158.88513349999999
  0
LINE
  8
_0-0_0
  6
CONTINUOUS
 62
    7
 10
185.77956950000001
 20
158.88513349999999
 11
186.9709015
 21
158.3268295
  0
LINE
  8
_0-0_0
  6
CONTINUOUS
 62
    7
 10
186.9709015
 20
158.3268295
 11
189.25144950000001
 21
157.68036749999999
  0
LINE
  8
_0-0_0
  6
CONTINUOUS
 62
    7
 10
189.25144950000001
 20
157.68036749999999
 11
192.3829475
 21
156.38745249999999
  0
LINE
  8
_0-0_0
  6
CONTINUOUS
 62
    7
 10
192.3829475
 20
156.38745249999999
 11
194.0167715
 21
155.62345249999998
  0
LINE
  8
_0-0_0
  6
CONTINUOUS
 62
    7
 10
194.0167715
 20
155.62345249999998
 11
194.69753249999999
 21
155.50591450000002
  0
LINE
  8
_0-0_0
  6
CONTINUOUS
 62
    7
 10
194.69753249999999
 20
155.50591450000002
 11
195.2421415
 21
155.3002175
  0
LINE
  8
_0-0_0
  6
CONTINUOUS
 62
    7
 10
195.2421415
 20
155.3002175
 11
196.5355855
 21
154.9769915
  0
LINE
  8
_0-0_0
  6
CONTINUOUS
 62
    7
 10
196.5355855
 20
154.9769915
 11
196.84192849999999
 21
154.9769915
  0
LINE
  8
_0-0_0
  6
CONTINUOUS
 62
    7
 10
196.84192849999999
 20
154.9769915
 11
197.28442150000001
 21
154.9769915
  0
LINE
  8
_0-0_0
  6
CONTINUOUS
 62
    7
 10
197.28442150000001
 20
154.9769915
 11
199.02036050000001
 21
155.3002175
  0
LINE
  8
_0-0_0
  6
CONTINUOUS
 62
    7
 10
182.51191850000001
 20
158.23867949999999
 11
183.60113749999999
 21
158.4443675
  0
LINE
  8
_0-0_0
  6
CONTINUOUS
 62
    7
 10
183.60113749999999
 20
158.4443675
 11
184.5542015
 21
158.4443675
  0
LINE
  8
_0-0_0
  6
CONTINUOUS
 62
    7
 10
184.5542015
 20
158.4443675
 11
186.63051949999999
 21
157.56282949999999
  0
LINE
  8
_0-0_0
  6
CONTINUOUS
 62
    7
 10
186.63051949999999
 20
157.56282949999999
 11
188.46857449999999
 21
157.1514445
  0
LINE
  8
_0-0_0
  6
CONTINUOUS
 62
    7
 10
188.46857449999999
 20
157.1514445
 11
189.14933350000001
 21
156.79882950000001
  0
LINE
  8
_0-0_0
  6
CONTINUOUS
 62
    7
 10
189.14933350000001
 20
156.79882950000001
 11
191.53199549999999
 21
156.15237550000001
  0
LINE
  8
_0-0_0
  6
CONTINUOUS
 62
    7
 10
191.53199549999999
 20
156.15237550000001
 11
192.72332750000001
 21
155.7116025
  0
LINE
  8
_0-0_0
  6
CONTINUOUS
 62
    7
 10
192.72332750000001
 20
155.7116025
 11
193.7104295
 21
155.18267950000001
  0
LINE
  8
_0-0_0
  6
CONTINUOUS
 62
    7
 10
193.7104295
 20
155.18267950000001
 11
194.25503750000001
 21
154.9769915
  0
LINE
  8
_0-0_0
  6
CONTINUOUS
 62
    7
 10
194.25503750000001
 20
154.9769915
 11
195.65059650000001
 21
154.41868749999998
  0
LINE
  8
_0-0_0
  6
CONTINUOUS
 62
    7
 10
195.65059650000001
 20
154.41868749999998
 11
196.09309150000001
 21
154.30114850000001
  0
LINE
  8
_0-0_0
  6
CONTINUOUS
 62
    7
 10
196.09309150000001
 20
154.30114850000001
 11
196.73981449999999
 21
153.65468749999999
  0
LINE
  8
_0-0_0
  6
CONTINUOUS
 62
    7
 10
196.73981449999999
 20
153.65468749999999
 11
197.18230750000001
 21
153.33145250000001
  0
LINE
  8
_0-0_0
  6
CONTINUOUS
 62
    7
 10
197.18230750000001
 20
153.33145250000001
 11
197.38653550000001
 21
152.56746049999998
  0
LINE
  8
_0-0_0
  6
CONTINUOUS
 62
    7
 10
182.8124785
 20
138.64144249999998
 11
183.5310575
 21
138.4042335
  0
LINE
  8
_0-0_0
  6
CONTINUOUS
 62
    7
 10
183.5310575
 20
138.4042335
 11
183.90402749999998
 21
138.3200855
  0
LINE
  8
_0-0_0
  6
CONTINUOUS
 62
    7
 10
183.90402749999998
 20
138.3200855
 11
185.51746550000001
 21
138.72840249999999
  0
LINE
  8
_0-0_0
  6
CONTINUOUS
 62
    7
 10
185.51746550000001
 20
138.72840249999999
 11
186.7546505
 21
139.1760195
  0
LINE
  8
_0-0_0
  6
CONTINUOUS
 62
    7
 10
186.7546505
 20
139.1760195
 11
188.8243555
 21
140.3314915
  0
LINE
  8
_0-0_0
  6
CONTINUOUS
 62
    7
 10
188.8243555
 20
140.3314915
 11
191.95289249999999
 21
141.6315625
  0
LINE
  8
_0-0_0
  6
CONTINUOUS
 62
    7
 10
191.95289249999999
 20
141.6315625
 11
193.64840849999999
 21
142.2466215
  0
LINE
  8
_0-0_0
  6
CONTINUOUS
 62
    7
 10
193.64840849999999
 20
142.2466215
 11
194.21289050000001
 21
142.64488349999999
  0
LINE
  8
_0-0_0
  6
CONTINUOUS
 62
    7
 10
194.21289050000001
 20
142.64488349999999
 11
194.74343450000001
 21
142.88453049999998
  0
LINE
  8
_0-0_0
  6
CONTINUOUS
 62
    7
 10
194.74343450000001
 20
142.88453049999998
 11
195.8865965
 21
143.57057750000001
  0
LINE
  8
_0-0_0
  6
CONTINUOUS
 62
    7
 10
195.8865965
 20
143.57057750000001
 11
196.10321250000001
 21
143.7871945
  0
LINE
  8
_0-0_0
  6
CONTINUOUS
 62
    7
 10
196.10321250000001
 20
143.7871945
 11
196.41610349999999
 21
144.10008349999998
  0
LINE
  8
_0-0_0
  6
CONTINUOUS
 62
    7
 10
196.41610349999999
 20
144.10008349999998
 11
197.41503850000001
 21
145.5561385
  0
LINE
  8
_0-0_0
  6
CONTINUOUS
 62
    7
 10
183.6640075
 20
135.96070649999999
 11
184.28875149999999
 21
136.87634850000001
  0
LINE
  8
_0-0_0
  6
CONTINUOUS
 62
    7
 10
184.28875149999999
 20
136.87634850000001
 11
184.9626715
 21
137.5502635
  0
LINE
  8
_0-0_0
  6
CONTINUOUS
 62
    7
 10
184.9626715
 20
137.5502635
 11
187.0541915
 21
138.3951045
  0
LINE
  8
_0-0_0
  6
CONTINUOUS
 62
    7
 10
187.0541915
 20
138.3951045
 11
188.64478450000001
 21
139.40391349999999
  0
LINE
  8
_0-0_0
  6
CONTINUOUS
 62
    7
 10
188.64478450000001
 20
139.40391349999999
 11
189.37549050000001
 21
139.63594549999999
  0
LINE
  8
_0-0_0
  6
CONTINUOUS
 62
    7
 10
189.37549050000001
 20
139.63594549999999
 11
191.5174025
 21
140.86362650000001
  0
LINE
  8
_0-0_0
  6
CONTINUOUS
 62
    7
 10
191.5174025
 20
140.86362650000001
 11
192.67147249999999
 21
141.39435349999999
  0
LINE
  8
_0-0_0
  6
CONTINUOUS
 62
    7
 10
192.67147249999999
 20
141.39435349999999
 11
193.74346349999999
 21
141.71833549999999
  0
LINE
  8
_0-0_0
  6
CONTINUOUS
 62
    7
 10
193.74346349999999
 20
141.71833549999999
 11
194.27400349999999
 21
141.9579865
  0
LINE
  8
_0-0_0
  6
CONTINUOUS
 62
    7
 10
194.27400349999999
 20
141.9579865
 11
195.6555975
 21
142.55001249999998
  0
LINE
  8
_0-0_0
  6
CONTINUOUS
 62
    7
 10
195.6555975
 20
142.55001249999998
 11
196.05159950000001
 21
142.77979449999998
  0
LINE
  8
_0-0_0
  6
CONTINUOUS
 62
    7
 10
196.05159950000001
 20
142.77979449999998
 11
196.96601849999999
 21
142.7799775
  0
LINE
  8
_0-0_0
  6
CONTINUOUS
 62
    7
 10
196.96601849999999
 20
142.7799775
 11
197.50746749999999
 21
142.86431249999998
  0
LINE
  8
_0-0_0
  6
CONTINUOUS
 62
    7
 10
197.50746749999999
 20
142.86431249999998
 11
198.1921055
 21
142.4684925
  0
LINE
  8
_0-0_0
  6
CONTINUOUS
 62
    7
 10
197.73387149999999
 20
122.31589649999999
 11
198.4097155
 21
122.6562785
  0
LINE
  8
_0-0_0
  6
CONTINUOUS
 62
    7
 10
198.4097155
 20
122.6562785
 11
198.7329465
 21
122.86050549999999
  0
LINE
  8
_0-0_0
  6
CONTINUOUS
 62
    7
 10
198.7329465
 20
122.86050549999999
 11
199.58509749999999
 21
124.29010149999999
  0
LINE
  8
_0-0_0
  6
CONTINUOUS
 62
    7
 10
199.58509749999999
 20
124.29010149999999
 11
200.14340350000001
 21
125.4814355
  0
LINE
  8
_0-0_0
  6
CONTINUOUS
 62
    7
 10
200.14340350000001
 20
125.4814355
 11
200.78986549999999
 21
127.7619835
  0
LINE
  8
_0-0_0
  6
CONTINUOUS
 62
    7
 10
200.78986549999999
 20
127.7619835
 11
202.0827845
 21
130.89348050000001
  0
LINE
  8
_0-0_0
  6
CONTINUOUS
 62
    7
 10
202.0827845
 20
130.89348050000001
 11
202.84678249999999
 21
132.52730750000001
  0
LINE
  8
_0-0_0
  6
CONTINUOUS
 62
    7
 10
202.84678249999999
 20
132.52730750000001
 11
202.96432049999999
 21
133.2080665
  0
LINE
  8
_0-0_0
  6
CONTINUOUS
 62
    7
 10
202.96432049999999
 20
133.2080665
 11
203.17001350000001
 21
133.75267550000001
  0
LINE
  8
_0-0_0
  6
CONTINUOUS
 62
    7
 10
203.17001350000001
 20
133.75267550000001
 11
203.49324250000001
 21
135.0461215
  0
LINE
  8
_0-0_0
  6
CONTINUOUS
 62
    7
 10
203.49324250000001
 20
135.0461215
 11
203.49324250000001
 21
135.3524645
  0
LINE
  8
_0-0_0
  6
CONTINUOUS
 62
    7
 10
203.49324250000001
 20
135.3524645
 11
203.49324250000001
 21
135.79495750000001
  0
LINE
  8
_0-0_0
  6
CONTINUOUS
 62
    7
 10
203.49324250000001
 20
135.79495750000001
 11
203.17001350000001
 21
137.53089649999998
  0
LINE
  8
_0-0_0
  6
CONTINUOUS
 62
    7
 10
200.02586550000001
 20
122.11167349999999
 11
200.02586550000001
 21
123.06473750000001
  0
LINE
  8
_0-0_0
  6
CONTINUOUS
 62
    7
 10
200.02586550000001
 20
123.06473750000001
 11
200.90740149999999
 21
125.1410535
  0
LINE
  8
_0-0_0
  6
CONTINUOUS
 62
    7
 10
200.90740149999999
 20
125.1410535
 11
201.31878649999999
 21
126.9791085
  0
LINE
  8
_0-0_0
  6
CONTINUOUS
 62
    7
 10
201.31878649999999
 20
126.9791085
 11
201.6714015
 21
127.65986849999999
  0
LINE
  8
_0-0_0
  6
CONTINUOUS
 62
    7
 10
201.6714015
 20
127.65986849999999
 11
202.31786149999999
 21
130.04252750000001
  0
LINE
  8
_0-0_0
  6
CONTINUOUS
 62
    7
 10
202.31786149999999
 20
130.04252750000001
 11
202.75862849999999
 21
131.23386149999999
  0
LINE
  8
_0-0_0
  6
CONTINUOUS
 62
    7
 10
202.75862849999999
 20
131.23386149999999
 11
203.28755150000001
 21
132.22096449999998
  0
LINE
  8
_0-0_0
  6
CONTINUOUS
 62
    7
 10
203.28755150000001
 20
132.22096449999998
 11
203.49324250000001
 21
132.76557349999999
  0
LINE
  8
_0-0_0
  6
CONTINUOUS
 62
    7
 10
203.49324250000001
 20
132.76557349999999
 11
204.05154949999999
 21
134.16113050000001
  0
LINE
  8
_0-0_0
  6
CONTINUOUS
 62
    7
 10
204.05154949999999
 20
134.16113050000001
 11
204.16908849999999
 21
134.6036245
  0
LINE
  8
_0-0_0
  6
CONTINUOUS
 62
    7
 10
204.16908849999999
 20
134.6036245
 11
204.81554750000001
 21
135.2503485
  0
LINE
  8
_0-0_0
  6
CONTINUOUS
 62
    7
 10
204.81554750000001
 20
135.2503485
 11
205.1387785
 21
135.69284249999998
  0
LINE
  8
_0-0_0
  6
CONTINUOUS
 62
    7
 10
205.1387785
 20
135.69284249999998
 11
205.90277649999999
 21
135.89706949999999
  0
LINE
  8
_0-0_0
  6
CONTINUOUS
 62
    7
 10
220.0660005
 20
122.0415935
 11
220.1501475
 21
122.41456049999999
  0
LINE
  8
_0-0_0
  6
CONTINUOUS
 62
    7
 10
220.1501475
 20
122.41456049999999
 11
219.74183249999999
 21
124.02800149999999
  0
LINE
  8
_0-0_0
  6
CONTINUOUS
 62
    7
 10
219.74183249999999
 20
124.02800149999999
 11
219.2942165
 21
125.2651845
  0
LINE
  8
_0-0_0
  6
CONTINUOUS
 62
    7
 10
219.2942165
 20
125.2651845
 11
218.13874150000001
 21
127.3348905
  0
LINE
  8
_0-0_0
  6
CONTINUOUS
 62
    7
 10
218.13874150000001
 20
127.3348905
 11
216.83867050000001
 21
130.4634265
  0
LINE
  8
_0-0_0
  6
CONTINUOUS
 62
    7
 10
216.83867050000001
 20
130.4634265
 11
216.22361050000001
 21
132.15894449999999
  0
LINE
  8
_0-0_0
  6
CONTINUOUS
 62
    7
 10
216.22361050000001
 20
132.15894449999999
 11
215.82535250000001
 21
132.72342449999999
  0
LINE
  8
_0-0_0
  6
CONTINUOUS
 62
    7
 10
215.82535250000001
 20
132.72342449999999
 11
215.5857015
 21
133.25396849999998
  0
LINE
  8
_0-0_0
  6
CONTINUOUS
 62
    7
 10
215.5857015
 20
133.25396849999998
 11
214.89965649999999
 21
134.3971305
  0
LINE
  8
_0-0_0
  6
CONTINUOUS
 62
    7
 10
214.89965649999999
 20
134.3971305
 11
214.6830405
 21
134.61374849999999
  0
LINE
  8
_0-0_0
  6
CONTINUOUS
 62
    7
 10
214.6830405
 20
134.61374849999999
 11
214.3701495
 21
134.9266375
  0
LINE
  8
_0-0_0
  6
CONTINUOUS
 62
    7
 10
214.3701495
 20
134.9266375
 11
212.9140965
 21
135.92557249999999
  0
LINE
  8
_0-0_0
  6
CONTINUOUS
 62
    7
 10
222.50952749999999
 20
122.17453949999999
 11
221.59388749999999
 21
122.79928749999999
  0
LINE
  8
_0-0_0
  6
CONTINUOUS
 62
    7
 10
221.59388749999999
 20
122.79928749999999
 11
220.91996950000001
 21
123.4732075
  0
LINE
  8
_0-0_0
  6
CONTINUOUS
 62
    7
 10
220.91996950000001
 20
123.4732075
 11
220.0751305
 21
125.56472549999999
  0
LINE
  8
_0-0_0
  6
CONTINUOUS
 62
    7
 10
220.0751305
 20
125.56472549999999
 11
219.06632250000001
 21
127.15532049999999
  0
LINE
  8
_0-0_0
  6
CONTINUOUS
 62
    7
 10
219.06632250000001
 20
127.15532049999999
 11
218.83428850000001
 21
127.8860265
  0
LINE
  8
_0-0_0
  6
CONTINUOUS
 62
    7
 10
218.83428850000001
 20
127.8860265
 11
217.60660849999999
 21
130.02793650000001
  0
LINE
  8
_0-0_0
  6
CONTINUOUS
 62
    7
 10
217.60660849999999
 20
130.02793650000001
 11
217.07587950000001
 21
131.18200849999999
  0
LINE
  8
_0-0_0
  6
CONTINUOUS
 62
    7
 10
217.07587950000001
 20
131.18200849999999
 11
216.75189750000001
 21
132.25399949999999
  0
LINE
  8
_0-0_0
  6
CONTINUOUS
 62
    7
 10
216.75189750000001
 20
132.25399949999999
 11
216.5122475
 21
132.78453949999999
  0
LINE
  8
_0-0_0
  6
CONTINUOUS
 62
    7
 10
216.5122475
 20
132.78453949999999
 11
215.9202205
 21
134.16613150000001
  0
LINE
  8
_0-0_0
  6
CONTINUOUS
 62
    7
 10
215.9202205
 20
134.16613150000001
 11
215.69044149999999
 21
134.56213550000001
  0
LINE
  8
_0-0_0
  6
CONTINUOUS
 62
    7
 10
215.69044149999999
 20
134.56213550000001
 11
215.69025550000001
 21
135.4765525
  0
LINE
  8
_0-0_0
  6
CONTINUOUS
 62
    7
 10
215.69025550000001
 20
135.4765525
 11
215.60592349999999
 21
136.0179995
  0
LINE
  8
_0-0_0
  6
CONTINUOUS
 62
    7
 10
215.60592349999999
 20
136.0179995
 11
216.00174150000001
 21
136.70263850000001
  0
LINE
  8
_0-0_0
  6
CONTINUOUS
 62
    7
 10
236.1543365
 20
136.2444055
 11
235.81395649999999
 21
136.92025150000001
  0
LINE
  8
_0-0_0
  6
CONTINUOUS
 62
    7
 10
235.81395649999999
 20
136.92025150000001
 11
235.60972749999999
 21
137.24347849999998
  0
LINE
  8
_0-0_0
  6
CONTINUOUS
 62
    7
 10
235.60972749999999
 20
137.24347849999998
 11
234.18013149999999
 21
138.09563249999999
  0
LINE
  8
_0-0_0
  6
CONTINUOUS
 62
    7
 10
234.18013149999999
 20
138.09563249999999
 11
232.9887995
 21
138.65393950000001
  0
LINE
  8
_0-0_0
  6
CONTINUOUS
 62
    7
 10
232.9887995
 20
138.65393950000001
 11
230.70825149999999
 21
139.30040149999999
  0
LINE
  8
_0-0_0
  6
CONTINUOUS
 62
    7
 10
230.70825149999999
 20
139.30040149999999
 11
227.5767525
 21
140.5933205
  0
LINE
  8
_0-0_0
  6
CONTINUOUS
 62
    7
 10
227.5767525
 20
140.5933205
 11
225.9429275
 21
141.3573165
  0
LINE
  8
_0-0_0
  6
CONTINUOUS
 62
    7
 10
225.9429275
 20
141.3573165
 11
225.2621675
 21
141.47485449999999
  0
LINE
  8
_0-0_0
  6
CONTINUOUS
 62
    7
 10
225.2621675
 20
141.47485449999999
 11
224.7175585
 21
141.68054749999999
  0
LINE
  8
_0-0_0
  6
CONTINUOUS
 62
    7
 10
224.7175585
 20
141.68054749999999
 11
223.4241145
 21
142.00377850000001
  0
LINE
  8
_0-0_0
  6
CONTINUOUS
 62
    7
 10
223.4241145
 20
142.00377850000001
 11
223.1177715
 21
142.00377850000001
  0
LINE
  8
_0-0_0
  6
CONTINUOUS
 62
    7
 10
223.1177715
 20
142.00377850000001
 11
222.67527749999999
 21
142.00377850000001
  0
LINE
  8
_0-0_0
  6
CONTINUOUS
 62
    7
 10
222.67527749999999
 20
142.00377850000001
 11
220.93933849999999
 21
141.68054749999999
  0
LINE
  8
_0-0_0
  6
CONTINUOUS
 62
    7
 10
237.44778149999999
 20
138.74209350000001
 11
236.3585635
 21
138.53640150000001
  0
LINE
  8
_0-0_0
  6
CONTINUOUS
 62
    7
 10
236.3585635
 20
138.53640150000001
 11
235.40549949999999
 21
138.53640150000001
  0
LINE
  8
_0-0_0
  6
CONTINUOUS
 62
    7
 10
235.40549949999999
 20
138.53640150000001
 11
233.32918050000001
 21
139.4179355
  0
LINE
  8
_0-0_0
  6
CONTINUOUS
 62
    7
 10
233.32918050000001
 20
139.4179355
 11
231.49112650000001
 21
139.82932049999999
  0
LINE
  8
_0-0_0
  6
CONTINUOUS
 62
    7
 10
231.49112650000001
 20
139.82932049999999
 11
230.81036649999999
 21
140.18193550000001
  0
LINE
  8
_0-0_0
  6
CONTINUOUS
 62
    7
 10
230.81036649999999
 20
140.18193550000001
 11
228.4277055
 21
140.8283935
  0
LINE
  8
_0-0_0
  6
CONTINUOUS
 62
    7
 10
228.4277055
 20
140.8283935
 11
227.23637350000001
 21
141.26916249999999
  0
LINE
  8
_0-0_0
  6
CONTINUOUS
 62
    7
 10
227.23637350000001
 20
141.26916249999999
 11
226.24927049999999
 21
141.79808550000001
  0
LINE
  8
_0-0_0
  6
CONTINUOUS
 62
    7
 10
226.24927049999999
 20
141.79808550000001
 11
225.70466149999999
 21
142.00377850000001
  0
LINE
  8
_0-0_0
  6
CONTINUOUS
 62
    7
 10
225.70466149999999
 20
142.00377850000001
 11
224.30910249999999
 21
142.56208549999999
  0
LINE
  8
_0-0_0
  6
CONTINUOUS
 62
    7
 10
224.30910249999999
 20
142.56208549999999
 11
223.86660850000001
 21
142.6796205
  0
LINE
  8
_0-0_0
  6
CONTINUOUS
 62
    7
 10
223.86660850000001
 20
142.6796205
 11
223.2198855
 21
143.32608149999999
  0
LINE
  8
_0-0_0
  6
CONTINUOUS
 62
    7
 10
223.2198855
 20
143.32608149999999
 11
222.77739149999999
 21
143.64931250000001
  0
LINE
  8
_0-0_0
  6
CONTINUOUS
 62
    7
 10
222.77739149999999
 20
143.64931250000001
 11
222.57316349999999
 21
144.41331249999999
  0
LINE
  8
_0-0_0
  6
CONTINUOUS
 62
    7
 10
237.1472215
 20
158.3393265
 11
236.4286415
 21
158.5765395
  0
LINE
  8
_0-0_0
  6
CONTINUOUS
 62
    7
 10
236.4286415
 20
158.5765395
 11
236.05567250000001
 21
158.6606835
  0
LINE
  8
_0-0_0
  6
CONTINUOUS
 62
    7
 10
236.05567250000001
 20
158.6606835
 11
234.44223349999999
 21
158.25236649999999
  0
LINE
  8
_0-0_0
  6
CONTINUOUS
 62
    7
 10
234.44223349999999
 20
158.25236649999999
 11
233.2050505
 21
157.80474950000001
  0
LINE
  8
_0-0_0
  6
CONTINUOUS
 62
    7
 10
233.2050505
 20
157.80474950000001
 11
231.1353445
 21
156.64927749999998
  0
LINE
  8
_0-0_0
  6
CONTINUOUS
 62
    7
 10
231.1353445
 20
156.64927749999998
 11
228.00680850000001
 21
155.34920649999998
  0
LINE
  8
_0-0_0
  6
CONTINUOUS
 62
    7
 10
228.00680850000001
 20
155.34920649999998
 11
226.31129150000001
 21
154.73414750000001
  0
LINE
  8
_0-0_0
  6
CONTINUOUS
 62
    7
 10
226.31129150000001
 20
154.73414750000001
 11
225.74680849999999
 21
154.33588550000002
  0
LINE
  8
_0-0_0
  6
CONTINUOUS
 62
    7
 10
225.74680849999999
 20
154.33588550000002
 11
225.21626549999999
 21
154.0962385
  0
LINE
  8
_0-0_0
  6
CONTINUOUS
 62
    7
 10
225.21626549999999
 20
154.0962385
 11
224.0731035
 21
153.4101885
  0
LINE
  8
_0-0_0
  6
CONTINUOUS
 62
    7
 10
224.0731035
 20
153.4101885
 11
223.85648750000001
 21
153.19357450000001
  0
LINE
  8
_0-0_0
  6
CONTINUOUS
 62
    7
 10
223.85648750000001
 20
153.19357450000001
 11
223.5435975
 21
152.8806855
  0
LINE
  8
_0-0_0
  6
CONTINUOUS
 62
    7
 10
223.5435975
 20
152.8806855
 11
222.54466049999999
 21
151.42463049999998
  0
LINE
  8
_0-0_0
  6
CONTINUOUS
 62
    7
 10
236.2956935
 20
161.0200585
 11
235.67094750000001
 21
160.10442449999999
  0
LINE
  8
_0-0_0
  6
CONTINUOUS
 62
    7
 10
235.67094750000001
 20
160.10442449999999
 11
234.9970295
 21
159.43050549999998
  0
LINE
  8
_0-0_0
  6
CONTINUOUS
 62
    7
 10
234.9970295
 20
159.43050549999998
 11
232.90550949999999
 21
158.58566450000001
  0
LINE
  8
_0-0_0
  6
CONTINUOUS
 62
    7
 10
232.90550949999999
 20
158.58566450000001
 11
231.31491549999998
 21
157.57685950000001
  0
LINE
  8
_0-0_0
  6
CONTINUOUS
 62
    7
 10
231.31491549999998
 20
157.57685950000001
 11
230.58421049999998
 21
157.3448195
  0
LINE
  8
_0-0_0
  6
CONTINUOUS
 62
    7
 10
230.58421049999998
 20
157.3448195
 11
228.44229849999999
 21
156.1171425
  0
LINE
  8
_0-0_0
  6
CONTINUOUS
 62
    7
 10
228.44229849999999
 20
156.1171425
 11
227.2882285
 21
155.5864115
  0
LINE
  8
_0-0_0
  6
CONTINUOUS
 62
    7
 10
227.2882285
 20
155.5864115
 11
226.21623750000001
 21
155.2624295
  0
LINE
  8
_0-0_0
  6
CONTINUOUS
 62
    7
 10
226.21623750000001
 20
155.2624295
 11
225.68569450000001
 21
155.02278250000001
  0
LINE
  8
_0-0_0
  6
CONTINUOUS
 62
    7
 10
225.68569450000001
 20
155.02278250000001
 11
224.3041025
 21
154.4307565
  0
LINE
  8
_0-0_0
  6
CONTINUOUS
 62
    7
 10
224.3041025
 20
154.4307565
 11
223.90810049999999
 21
154.2009745
  0
LINE
  8
_0-0_0
  6
CONTINUOUS
 62
    7
 10
223.90810049999999
 20
154.2009745
 11
222.99368150000001
 21
154.20079149999998
  0
LINE
  8
_0-0_0
  6
CONTINUOUS
 62
    7
 10
222.99368150000001
 20
154.20079149999998
 11
222.45223350000001
 21
154.1164565
  0
LINE
  8
_0-0_0
  6
CONTINUOUS
 62
    7
 10
222.45223350000001
 20
154.1164565
 11
221.7675945
 21
154.51227649999998
  0
LINE
  8
_0-0_0
  6
CONTINUOUS
 62
    7
 10
222.22582850000001
 20
174.6648725
 11
221.5499835
 21
174.32449450000001
  0
LINE
  8
_0-0_0
  6
CONTINUOUS
 62
    7
 10
221.5499835
 20
174.32449450000001
 11
221.2267545
 21
174.12026349999999
  0
LINE
  8
_0-0_0
  6
CONTINUOUS
 62
    7
 10
221.2267545
 20
174.12026349999999
 11
220.37460250000001
 21
172.69066750000002
  0
LINE
  8
_0-0_0
  6
CONTINUOUS
 62
    7
 10
220.37460250000001
 20
172.69066750000002
 11
219.8162955
 21
171.49932949999999
  0
LINE
  8
_0-0_0
  6
CONTINUOUS
 62
    7
 10
219.8162955
 20
171.49932949999999
 11
219.16983450000001
 21
169.21878149999998
  0
LINE
  8
_0-0_0
  6
CONTINUOUS
 62
    7
 10
219.16983450000001
 20
169.21878149999998
 11
217.8769155
 21
166.0872895
  0
LINE
  8
_0-0_0
  6
CONTINUOUS
 62
    7
 10
217.8769155
 20
166.0872895
 11
217.11291650000001
 21
164.4534615
  0
LINE
  8
_0-0_0
  6
CONTINUOUS
 62
    7
 10
217.11291650000001
 20
164.4534615
 11
216.99537849999999
 21
163.7727065
  0
LINE
  8
_0-0_0
  6
CONTINUOUS
 62
    7
 10
216.99537849999999
 20
163.7727065
 11
216.78968649999999
 21
163.22808950000001
  0
LINE
  8
_0-0_0
  6
CONTINUOUS
 62
    7
 10
216.78968649999999
 20
163.22808950000001
 11
216.46645649999999
 21
161.93464749999998
  0
LINE
  8
_0-0_0
  6
CONTINUOUS
 62
    7
 10
216.46645649999999
 20
161.93464749999998
 11
216.46645649999999
 21
161.62830450000001
  0
LINE
  8
_0-0_0
  6
CONTINUOUS
 62
    7
 10
216.46645649999999
 20
161.62830450000001
 11
216.46645649999999
 21
161.18581549999999
  0
LINE
  8
_0-0_0
  6
CONTINUOUS
 62
    7
 10
216.46645649999999
 20
161.18581549999999
 11
216.78968649999999
 21
159.44987650000002
  0
LINE
  8
_0-0_0
  6
CONTINUOUS
 62
    7
 10
219.72814149999999
 20
175.9583135
 11
219.93383349999999
 21
174.86909550000001
  0
LINE
  8
_0-0_0
  6
CONTINUOUS
 62
    7
 10
219.93383349999999
 20
174.86909550000001
 11
219.93383349999999
 21
173.9160315
  0
LINE
  8
_0-0_0
  6
CONTINUOUS
 62
    7
 10
219.93383349999999
 20
173.9160315
 11
219.05229750000001
 21
171.83971550000001
  0
LINE
  8
_0-0_0
  6
CONTINUOUS
 62
    7
 10
219.05229750000001
 20
171.83971550000001
 11
218.64091350000001
 21
170.0016645
  0
LINE
  8
_0-0_0
  6
CONTINUOUS
 62
    7
 10
218.64091350000001
 20
170.0016645
 11
218.2882985
 21
169.32090149999999
  0
LINE
  8
_0-0_0
  6
CONTINUOUS
 62
    7
 10
218.2882985
 20
169.32090149999999
 11
217.64183850000001
 21
166.9382415
  0
LINE
  8
_0-0_0
  6
CONTINUOUS
 62
    7
 10
217.64183850000001
 20
166.9382415
 11
217.20107050000001
 21
165.7469035
  0
LINE
  8
_0-0_0
  6
CONTINUOUS
 62
    7
 10
217.20107050000001
 20
165.7469035
 11
216.67214849999999
 21
164.7598045
  0
LINE
  8
_0-0_0
  6
CONTINUOUS
 62
    7
 10
216.67214849999999
 20
164.7598045
 11
216.46645649999999
 21
164.21519549999999
  0
LINE
  8
_0-0_0
  6
CONTINUOUS
 62
    7
 10
216.46645649999999
 20
164.21519549999999
 11
215.9081505
 21
162.81963450000001
  0
LINE
  8
_0-0_0
  6
CONTINUOUS
 62
    7
 10
215.9081505
 20
162.81963450000001
 11
215.79061250000001
 21
162.37714549999998
  0
LINE
  8
_0-0_0
  6
CONTINUOUS
 62
    7
 10
215.79061250000001
 20
162.37714549999998
 11
215.14415249999999
 21
161.7304245
  0
LINE
  8
_0-0_0
  6
CONTINUOUS
 62
    7
 10
215.14415249999999
 20
161.7304245
 11
214.8209215
 21
161.2879265
  0
LINE
  8
_0-0_0
  6
CONTINUOUS
 62
    7
 10
214.8209215
 20
161.2879265
 11
214.05692350000001
 21
161.08369549999998
  0
LINE
  8
_0-0_0
  6
CONTINUOUS
 62
    7
 10
200.1309085
 20
175.65775350000001
 11
199.8936995
 21
174.93917949999999
  0
LINE
  8
_0-0_0
  6
CONTINUOUS
 62
    7
 10
199.8936995
 20
174.93917949999999
 11
199.8095525
 21
174.56620850000002
  0
LINE
  8
_0-0_0
  6
CONTINUOUS
 62
    7
 10
199.8095525
 20
174.56620850000002
 11
200.21786650000001
 21
172.95276749999999
  0
LINE
  8
_0-0_0
  6
CONTINUOUS
 62
    7
 10
200.21786650000001
 20
172.95276749999999
 11
200.66548349999999
 21
171.71558449999998
  0
LINE
  8
_0-0_0
  6
CONTINUOUS
 62
    7
 10
200.66548349999999
 20
171.71558449999998
 11
201.82095849999999
 21
169.64587549999999
  0
LINE
  8
_0-0_0
  6
CONTINUOUS
 62
    7
 10
201.82095849999999
 20
169.64587549999999
 11
203.12102949999999
 21
166.51734249999998
  0
LINE
  8
_0-0_0
  6
CONTINUOUS
 62
    7
 10
203.12102949999999
 20
166.51734249999998
 11
203.73608949999999
 21
164.82182449999999
  0
LINE
  8
_0-0_0
  6
CONTINUOUS
 62
    7
 10
203.73608949999999
 20
164.82182449999999
 11
204.13434749999999
 21
164.2573405
  0
LINE
  8
_0-0_0
  6
CONTINUOUS
 62
    7
 10
204.13434749999999
 20
164.2573405
 11
204.3739985
 21
163.7268005
  0
LINE
  8
_0-0_0
  6
CONTINUOUS
 62
    7
 10
204.3739985
 20
163.7268005
 11
205.06004250000001
 21
162.58363450000002
  0
LINE
  8
_0-0_0
  6
CONTINUOUS
 62
    7
 10
205.06004250000001
 20
162.58363450000002
 11
205.27665949999999
 21
162.3670205
  0
LINE
  8
_0-0_0
  6
CONTINUOUS
 62
    7
 10
205.27665949999999
 20
162.3670205
 11
205.5895505
 21
162.05413149999998
  0
LINE
  8
_0-0_0
  6
CONTINUOUS
 62
    7
 10
205.5895505
 20
162.05413149999998
 11
207.0456025
 21
161.05519249999998
  0
LINE
  8
_0-0_0
  6
CONTINUOUS
 62
    7
 10
197.45017250000001
 20
174.8062295
 11
198.3658125
 21
174.18148149999999
  0
LINE
  8
_0-0_0
  6
CONTINUOUS
 62
    7
 10
198.3658125
 20
174.18148149999999
 11
199.03972949999999
 21
173.50756150000001
  0
LINE
  8
_0-0_0
  6
CONTINUOUS
 62
    7
 10
199.03972949999999
 20
173.50756150000001
 11
199.8845685
 21
171.41604749999999
  0
LINE
  8
_0-0_0
  6
CONTINUOUS
 62
    7
 10
199.8845685
 20
171.41604749999999
 11
200.89337749999999
 21
169.82544849999999
  0
LINE
  8
_0-0_0
  6
CONTINUOUS
 62
    7
 10
200.89337749999999
 20
169.82544849999999
 11
201.12541149999998
 21
169.0947425
  0
LINE
  8
_0-0_0
  6
CONTINUOUS
 62
    7
 10
201.12541149999998
 20
169.0947425
 11
202.35309050000001
 21
166.95283649999999
  0
LINE
  8
_0-0_0
  6
CONTINUOUS
 62
    7
 10
202.35309050000001
 20
166.95283649999999
 11
202.88381949999999
 21
165.79876050000001
  0
LINE
  8
_0-0_0
  6
CONTINUOUS
 62
    7
 10
202.88381949999999
 20
165.79876050000001
 11
203.20780250000001
 21
164.72676949999999
  0
LINE
  8
_0-0_0
  6
CONTINUOUS
 62
    7
 10
203.20780250000001
 20
164.72676949999999
 11
203.4474525
 21
164.19622950000002
  0
LINE
  8
_0-0_0
  6
CONTINUOUS
 62
    7
 10
203.4474525
 20
164.19622950000002
 11
204.0394795
 21
162.8146375
  0
LINE
  8
_0-0_0
  6
CONTINUOUS
 62
    7
 10
204.0394795
 20
162.8146375
 11
204.26925850000001
 21
162.4186335
  0
LINE
  8
_0-0_0
  6
CONTINUOUS
 62
    7
 10
204.26925850000001
 20
162.4186335
 11
204.26944449999999
 21
161.50421249999999
  0
LINE
  8
_0-0_0
  6
CONTINUOUS
 62
    7
 10
204.26944449999999
 20
161.50421249999999
 11
204.35377650000001
 21
160.96276949999998
  0
LINE
  8
_0-0_0
  6
CONTINUOUS
 62
    7
 10
204.35377650000001
 20
160.96276949999998
 11
203.95795749999999
 21
160.2781305
  0
LINE
  8
_0-0_0
  6
CONTINUOUS
 62
    7
 10
204.0974305
 20
122.12066849999999
 11
204.82272749999998
 21
121.39669549999999
  0
LINE
  8
_0-0_0
  6
CONTINUOUS
 62
    7
 10
204.82272749999998
 20
121.39669549999999
 11
204.9587205
 21
121.31842949999999
  0
LINE
  8
_0-0_0
  6
CONTINUOUS
 62
    7
 10
204.9587205
 20
121.31842949999999
 11
205.41203050000001
 21
121.04449249999999
  0
LINE
  8
_0-0_0
  6
CONTINUOUS
 62
    7
 10
205.41203050000001
 20
121.04449249999999
 11
205.68401650000001
 21
120.8879565
  0
LINE
  8
_0-0_0
  6
CONTINUOUS
 62
    7
 10
205.68401650000001
 20
120.8879565
 11
206.20532349999999
 21
120.7509895
  0
LINE
  8
_0-0_0
  6
CONTINUOUS
 62
    7
 10
206.20532349999999
 20
120.7509895
 11
206.4093125
 21
120.5944535
  0
LINE
  8
_0-0_0
  6
CONTINUOUS
 62
    7
 10
206.4093125
 20
120.5944535
 11
207.06661249999999
 21
120.3792205
  0
LINE
  8
_0-0_0
  6
CONTINUOUS
 62
    7
 10
207.06661249999999
 20
120.3792205
 11
207.49725749999999
 21
120.32052049999999
  0
LINE
  8
_0-0_0
  6
CONTINUOUS
 62
    7
 10
207.49725749999999
 20
120.32052049999999
 11
208.2905495
 21
120.16398749999999
  0
LINE
  8
_0-0_0
  6
CONTINUOUS
 62
    7
 10
208.2905495
 20
120.16398749999999
 11
209.9798495
 21
119.81178449999999
  0
LINE
  8
_0-0_0
  6
CONTINUOUS
 62
    7
 10
214.93846049999999
 20
122.34842449999999
 11
214.38015350000001
 21
121.5995885
  0
LINE
  8
_0-0_0
  6
CONTINUOUS
 62
    7
 10
214.38015350000001
 20
121.5995885
 11
213.85123150000001
 21
121.0549795
  0
LINE
  8
_0-0_0
  6
CONTINUOUS
 62
    7
 10
213.85123150000001
 20
121.0549795
 11
213.41046349999999
 21
120.71460149999999
  0
LINE
  8
_0-0_0
  6
CONTINUOUS
 62
    7
 10
213.41046349999999
 20
120.71460149999999
 11
212.32323550000001
 21
120.61248549999999
  0
LINE
  8
_0-0_0
  6
CONTINUOUS
 62
    7
 10
212.32323550000001
 20
120.61248549999999
 11
211.3535445
 21
120.0678765
  0
LINE
  8
_0-0_0
  6
CONTINUOUS
 62
    7
 10
211.3535445
 20
120.0678765
 11
209.9798495
 21
119.81178449999999
  0
LINE
  8
_0-0_0
  6
CONTINUOUS
 62
    7
 10
200.23155750000001
 20
121.02245550000001
 11
200.02586550000001
 21
122.11167349999999
  0
LINE
  8
_0-0_0
  6
CONTINUOUS
 62
    7
 10
219.82879149999999
 20
121.3230155
 11
220.0660005
 21
122.0415935
  0
ENDSEC
  0
EOF
