  0
SECTION
  2
HEADER
  9
$ACADVER
  1
AC1009
  9
$INSBASE
 10
0
 20
0
 30
0
  9
$EXTMIN
 10
0
 20
0
  9
$EXTMAX
 10
420
 20
297
  9
$LIMMIN
 10
0
 20
0
  9
$LIMMAX
 10
420
 20
297
  9
$LTSCALE
 40
1
  0
ENDSEC
  0
SECTION
  2
TABLES
  0
TABLE
  2
LTYPE
 70
     9
  0
LTYPE
  2
CONTINUOUS
 70
    64
  3
実線
 72
    65
 73
     0
 40
0.0
  0
LTYPE
  2
DASHED1
 70
    64
  3
--  --  --  --  --  --  --  --  
 72
    65
 73
     2
 40
2.5
 49
1.25
 49
-1.25
  0
LTYPE
  2
DASHED2
 70
    64
  3
----    ----    ----    ----    
 72
    65
 73
     2
 40
5.0
 49
2.5
 49
-2.5
  0
LTYPE
  2
DASHED3
 70
    64
  3
------  ------  ------  ------  
 72
    65
 73
     2
 40
5.0
 49
3.75
 49
-1.25
  0
LTYPE
  2
CENTER1
 70
    64
  3
----- - ----- - ----- - ----- - 
 72
    65
 73
     4
 40
10.0
 49
6.25
 49
-1.25
 49
1.25
 49
-1.25
  0
LTYPE
  2
CENTER2
 70
    64
  3
----------  --  ----------  --  
 72
    65
 73
     4
 40
20.0
 49
12.5
 49
-2.5
 49
2.5
 49
-2.5
  0
LTYPE
  2
PHANTOM1
 70
    64
  3
--- - - --- - - --- - - --- - - 
 72
    65
 73
     6
 40
10.0
 49
3.25
 49
-1.25
 49
1.25
 49
-1.25
 49
1.25
 49
-1.25
  0
LTYPE
  2
PHANTOM2
 70
    64
  3
--------  -  -  --------  -  -  
 72
    65
 73
     6
 40
20.0
 49
10.0
 49
-2.5
 49
1.25
 49
-2.5
 49
1.25
 49
-2.5
  0
LTYPE
  2
DOT
 70
    64
  3
-   -   -   -   -   -   -   -   
 72
    65
 73
     2
 40
2.5
 49
0.625
 49
-1.875
  0
LTYPE
  2
DUMMY
 70
    64
  3
ダミー
 72
    65
 73
     0
 40
0.0
  0
LTYPE
  2
RAND1
 70
    64
  3
ランダム線1
 72
    65
 73
     4
 40
10.0
 49
1.0
 49
-2.0
 49
3.0
 49
-4.0
  0
LTYPE
  2
RAND2
 70
    64
  3
ランダム線2
 72
    65
 73
     4
 40
14.0
 49
2.0
 49
-3.0
 49
4.0
 49
-5.0
  0
LTYPE
  2
RAND3
 70
    64
  3
ランダム線3
 72
    65
 73
     4
 40
18.0
 49
3.0
 49
-4.0
 49
5.0
 49
-6.0
  0
LTYPE
  2
RAND4
 70
    64
  3
ランダム線4
 72
    65
 73
     4
 40
22.0
 49
4.0
 49
-5.0
 49
6.0
 49
-7.0
  0
LTYPE
  2
RAND5
 70
    64
  3
ランダム線5
 72
    65
 73
     4
 40
26.0
 49
5.0
 49
-6.0
 49
7.0
 49
-8.0
  0
LTYPE
  2
LONG1
 70
    64
  3
----------  --  ----------  --  
 72
    65
 73
     4
 40
40.0
 49
32.5
 49
-2.5
 49
2.5
 49
-2.5
  0
LTYPE
  2
LONG2
 70
    64
  3
--------  -  -  --------  -  -  
 72
    65
 73
     6
 40
40.0
 49
30.0
 49
-2.5
 49
1.25
 49
-2.5
 49
1.25
 49
-2.5
  0
LTYPE
  2
LONG3
 70
    64
  3
+++++++++++++++..+++++++++++++++
 72
    65
 73
     2
 40
40.0
 49
37.5
 49
-2.5
  0
LTYPE
  2
LONG4
 70
    64
  3
+++++++++++++++..+++++++++++++++
 72
    65
 73
     2
 40
80.0
 49
75.0
 49
-5.0
  0
LTYPE
  2
LONG5
 70
    64
  3
----------  --  ----------  --  
 72
    65
 73
     4
 40
60.0
 49
37.5
 49
-7.5
 49
7.5
 49
-7.5
  0
LTYPE
  2
dashed
 70
   64
  3
-------   -------------   ------
 72
   65
 73
    2
 40
7.5
 49
6
 49
-1.5
  0
LTYPE
  2
dashed_spaced
 70
   64
  3
----        --------        ----
 72
   65
 73
    2
 40
12
 49
6
 49
-6
  0
LTYPE
  2
long_dashed_dotted
 70
   64
  3
------------- --- --------------
 72
   65
 73
    4
 40
15.25
 49
12
 49
-1.5
 49
0.25
 49
-1.5
  0
LTYPE
  2
long_dashed_double-dotted
 70
   64
  3
----------- --- --- ------------
 72
   65
 73
    6
 40
17
 49
12
 49
-1.5
 49
0.25
 49
-1.5
 49
0.25
 49
-1.5
  0
LTYPE
  2
long_dashed_triplicate-dotted
 70
   64
  3
--------- --- --- --- ----------
 72
   65
 73
    8
 40
18.75
 49
12
 49
-1.5
 49
0.25
 49
-1.5
 49
0.25
 49
-1.5
 49
0.25
 49
-1.5
  0
LTYPE
  2
dotted
 70
   64
  3
   -       -       -       -    
 72
   65
 73
    2
 40
1.75
 49
0.25
 49
-1.5
  0
LTYPE
  2
chain
 70
   64
  3
-------------- -- --------------
 72
   65
 73
    4
 40
18.5
 49
12
 49
-1.5
 49
3.5
 49
-1.5
  0
LTYPE
  2
chain_double_dash
 70
   64
  3
------------ -- -- -------------
 72
   65
 73
    6
 40
23.5
 49
12
 49
-1.5
 49
3.5
 49
-1.5
 49
3.5
 49
-1.5
  0
LTYPE
  2
dashed_dotted
 70
   64
  3
-----------     -     ----------
 72
   65
 73
    4
 40
9.25
 49
6
 49
-1.5
 49
0.25
 49
-1.5
  0
LTYPE
  2
double-dashed_dotted
 70
   64
  3
------   -----------   -   -----
 72
   65
 73
    6
 40
16.75
 49
6
 49
-1.5
 49
6
 49
-1.5
 49
0.25
 49
-1.5
  0
LTYPE
  2
dashed_double-dotted
 70
   64
  3
---------    -    -    ---------
 72
   65
 73
    6
 40
11
 49
6
 49
-1.5
 49
0.25
 49
-1.5
 49
0.25
 49
-1.5
  0
LTYPE
  2
double-dashed_double-dotted
 70
   64
  3
-----   ---------   -   -   ----
 72
   65
 73
    8
 40
18.5
 49
6
 49
-1.5
 49
6
 49
-1.5
 49
0.25
 49
-1.5
 49
0.25
 49
-1.5
  0
LTYPE
  2
dashed_triplicate-dotted
 70
   64
  3
-------    -    -    -    ------
 72
   65
 73
    8
 40
12.75
 49
6
 49
-1.5
 49
0.25
 49
-1.5
 49
0.25
 49
-1.5
 49
0.25
 49
-1.5
  0
LTYPE
  2
double-dashed_triplicate-dotted
 70
   64
  3
-----  ---------  -  -  -  -----
 72
   65
 73
   10
 40
20.25
 49
6
 49
-1.5
 49
6
 49
-1.5
 49
0.25
 49
-1.5
 49
0.25
 49
-1.5
 49
0.25
 49
-1.5
  0
LTYPE
  2
undefined
 70
   64
  3
--------------------------------
 72
   65
 73
    0
 40
0
  0
LTYPE
  2
BORDER
 70
   64
  3
----     --------     -     ----
 72
   65
 73
    6
 40
1.76
 49
0.5
 49
-0.25
 49
0.5
 49
-0.25
 49
0.01
 49
-0.25
  0
LTYPE
  2
BORDER2
 70
   64
  3
----     --------     -     ----
 72
   65
 73
    6
 40
0.885
 49
0.25
 49
-0.125
 49
0.25
 49
-0.125
 49
0.01
 49
-0.125
  0
LTYPE
  2
BORDERX2
 70
   64
  3
----     --------     -     ----
 72
   65
 73
    6
 40
3.5099999999999998
 49
1
 49
-0.5
 49
1
 49
-0.5
 49
0.01
 49
-0.5
  0
LTYPE
  2
CENTER
 70
   64
  3
----------    ----    ----------
 72
   65
 73
    4
 40
2
 49
1.25
 49
-0.25
 49
0.25
 49
-0.25
  0
LTYPE
  2
CENTER2_21
 70
   64
  3
----------    ----    ----------
 72
   65
 73
    4
 40
1.125
 49
0.75
 49
-0.125
 49
0.125
 49
-0.125
  0
LTYPE
  2
CENTERX2
 70
   64
  3
----------    ----    ----------
 72
   65
 73
    4
 40
4
 49
2.5
 49
-0.5
 49
0.5
 49
-0.5
  0
LTYPE
  2
DASHDOT
 70
   64
  3
--------        -        -------
 72
   65
 73
    4
 40
1.01
 49
0.5
 49
-0.25
 49
0.01
 49
-0.25
  0
LTYPE
  2
DASHDOT2
 70
   64
  3
--------        -        -------
 72
   65
 73
    4
 40
0.51
 49
0.25
 49
-0.125
 49
0.01
 49
-0.125
  0
LTYPE
  2
DASHDOTX2
 70
   64
  3
--------        -        -------
 72
   65
 73
    4
 40
2.0099999999999998
 49
1
 49
-0.5
 49
0.01
 49
-0.5
  0
LTYPE
  2
DASHED
 70
   64
  3
------     -----------     -----
 72
   65
 73
    2
 40
0.75
 49
0.5
 49
-0.25
  0
LTYPE
  2
DASHED2_27
 70
   64
  3
------     -----------     -----
 72
   65
 73
    2
 40
0.375
 49
0.25
 49
-0.125
  0
LTYPE
  2
DASHEDX2
 70
   64
  3
------     -----------     -----
 72
   65
 73
    2
 40
1.5
 49
1
 49
-0.5
  0
LTYPE
  2
DIVIDE
 70
   64
  3
------      -      -      ------
 72
   65
 73
    6
 40
1.27
 49
0.5
 49
-0.25
 49
0.01
 49
-0.25
 49
0.01
 49
-0.25
  0
LTYPE
  2
DIVIDE2
 70
   64
  3
------      -      -      ------
 72
   65
 73
    6
 40
0.645
 49
0.25
 49
-0.125
 49
0.01
 49
-0.125
 49
0.01
 49
-0.125
  0
LTYPE
  2
DIVIDEX2
 70
   64
  3
------      -      -      ------
 72
   65
 73
    6
 40
2.5199999999999996
 49
1
 49
-0.5
 49
0.01
 49
-0.5
 49
0.01
 49
-0.5
  0
LTYPE
  2
DOT_32
 70
   64
  3
-               -               
 72
   65
 73
    2
 40
0.26
 49
0.01
 49
-0.25
  0
ENDTAB
  0
TABLE
  2
STYLE
  5
3
100
AcDbSymbolTable
 70
     1
  0
STYLE
  5
10
100
AcDbSymbolTableRecord
100
AcDbTextStyleTableRecord
  2
STANDARD
 70
     0
 40
0.0
 41
1.0
 50
0.0
 71
     0
 42
0.2
  3
txt
  4
bigfont.shx
  0
STYLE
  5
26
100
AcDbSymbolTableRecord
100
AcDbTextStyleTableRecord
  2
TATEGAKI
 70
    68
 40
0.0
 41
1.0
 50
0.0
 71
     0
 42
1.0
  3
txt
  4
bigfont.shx
  0
ENDTAB
  0
TABLE
  2
LAYER
 70
    2
  0
LAYER
  2
_0-0_0
 70
   64
 62
    7
  6
CONTINUOUS
  0
LAYER
  2
ADD_LINE
 70
   64
 62
    7
  6
CONTINUOUS
  0
ENDTAB
  0
ENDSEC
  0
SECTION
  2
BLOCKS
  0
ENDSEC
  0
SECTION
  2
ENTITIES
  0
LINE
  8
_0-0_0
  6
CONTINUOUS
 62
    7
 10
170.0011000847617
 20
88.324046899026143
 11
250.00110008476165
 21
88.324046899026143
  0
LINE
  8
_0-0_0
  6
CONTINUOUS
 62
    7
 10
250.00110008476165
 20
88.324046899026143
 11
250.00110008476165
 21
168.32404689902609
  0
LINE
  8
_0-0_0
  6
CONTINUOUS
 62
    7
 10
250.00110008476165
 20
168.32404689902609
 11
170.0011000847617
 21
168.32404689902609
  0
LINE
  8
_0-0_0
  6
CONTINUOUS
 62
    7
 10
170.0011000847617
 20
168.32404689902609
 11
170.0011000847617
 21
88.324046899026143
  0
LINE
  8
_0-0_0
  6
CONTINUOUS
 62
    7
 10
197.00110008476167
 20
115.32404689902614
 11
223.00110008476167
 21
115.32404689902614
  0
LINE
  8
_0-0_0
  6
CONTINUOUS
 62
    7
 10
223.00110008476167
 20
115.32404689902614
 11
223.00110008476167
 21
141.32404689902614
  0
LINE
  8
_0-0_0
  6
CONTINUOUS
 62
    7
 10
223.00110008476167
 20
141.32404689902614
 11
197.00110008476167
 21
141.32404689902614
  0
LINE
  8
_0-0_0
  6
CONTINUOUS
 62
    7
 10
197.00110008476167
 20
141.32404689902614
 11
197.00110008476167
 21
115.32404689902614
  0
LINE
  8
_0-0_0
  6
CONTINUOUS
 62
    7
 10
242.79619113306345
 20
128.32404689902614
 11
230.00110008476167
 21
128.32404689902614
  0
ARC
  8
_0-0_0
  6
CONTINUOUS
 62
    7
 10
242.44258317444672
 20
96.520939036558389
 40
34.150083033320399
 50
77.212701727781962
 51
111.36560492985602
  0
ARC
  8
_0-0_0
  6
CONTINUOUS
 62
    7
 10
242.44258317444672
 20
160.1271547614939
 40
34.150083033320399
 50
248.6343950701438
 51
282.78729827221798
  0
LINE
  8
_0-0_0
  6
CONTINUOUS
 62
    7
 10
242.79619113306345
 20
128.32404689902614
 11
250.00110008476165
 21
129.82404689902614
  0
LINE
  8
_0-0_0
  6
CONTINUOUS
 62
    7
 10
242.79619113306345
 20
128.32404689902614
 11
250.00110008476165
 21
126.82404689902614
  0
LINE
  8
_0-0_0
  6
CONTINUOUS
 62
    7
 10
242.79619113306345
 20
138.32404689902614
 11
230.00110008476167
 21
138.32404689902614
  0
ARC
  8
_0-0_0
  6
CONTINUOUS
 62
    7
 10
242.44258317444672
 20
106.52093903655839
 40
34.150083033320399
 50
77.212701727781933
 51
111.36560492985602
  0
ARC
  8
_0-0_0
  6
CONTINUOUS
 62
    7
 10
242.44258317444672
 20
170.1271547614939
 40
34.150083033320399
 50
248.6343950701438
 51
282.78729827221792
  0
LINE
  8
_0-0_0
  6
CONTINUOUS
 62
    7
 10
242.79619113306345
 20
138.32404689902614
 11
250.00110008476165
 21
139.82404689902614
  0
LINE
  8
_0-0_0
  6
CONTINUOUS
 62
    7
 10
242.79619113306345
 20
138.32404689902614
 11
250.00110008476165
 21
136.82404689902614
  0
LINE
  8
_0-0_0
  6
CONTINUOUS
 62
    7
 10
242.79619113306345
 20
118.32404689902614
 11
230.00110008476167
 21
118.32404689902614
  0
ARC
  8
_0-0_0
  6
CONTINUOUS
 62
    7
 10
242.44258317444672
 20
86.520939036558389
 40
34.150083033320399
 50
77.212701727781933
 51
111.36560492985602
  0
ARC
  8
_0-0_0
  6
CONTINUOUS
 62
    7
 10
242.44258317444672
 20
150.1271547614939
 40
34.150083033320399
 50
248.6343950701438
 51
282.78729827221792
  0
LINE
  8
_0-0_0
  6
CONTINUOUS
 62
    7
 10
242.79619113306345
 20
118.32404689902614
 11
250.00110008476165
 21
119.82404689902614
  0
LINE
  8
_0-0_0
  6
CONTINUOUS
 62
    7
 10
242.79619113306345
 20
118.32404689902614
 11
250.00110008476165
 21
116.82404689902614
  0
LINE
  8
_0-0_0
  6
CONTINUOUS
 62
    7
 10
244.79619113306345
 20
108.32404689902614
 11
235.00110008476165
 21
108.32404689902614
  0
ARC
  8
_0-0_0
  6
CONTINUOUS
 62
    7
 10
244.77613870924932
 20
86.323660654149336
 40
24.07422636418438
 50
77.465027857660147
 51
113.9561584173391
  0
ARC
  8
_0-0_0
  6
CONTINUOUS
 62
    7
 10
244.77613870924944
 20
130.32443314390309
 40
24.074226364184561
 50
246.04384158266063
 51
282.53497214233948
  0
LINE
  8
_0-0_0
  6
CONTINUOUS
 62
    7
 10
244.79619113306345
 20
108.32404689902614
 11
250.00110008476165
 21
109.82404689902614
  0
LINE
  8
_0-0_0
  6
CONTINUOUS
 62
    7
 10
244.79619113306345
 20
108.32404689902614
 11
250.00110008476165
 21
106.82404689902614
  0
LINE
  8
_0-0_0
  6
CONTINUOUS
 62
    7
 10
244.79619113306345
 20
98.324046899026143
 11
250.00110008476165
 21
99.824046899026143
  0
LINE
  8
_0-0_0
  6
CONTINUOUS
 62
    7
 10
244.79619113306345
 20
98.324046899026143
 11
250.00110008476165
 21
96.824046899026172
  0
LINE
  8
_0-0_0
  6
CONTINUOUS
 62
    7
 10
244.79619113306345
 20
148.32404689902614
 11
235.00110008476165
 21
148.32404689902614
  0
ARC
  8
_0-0_0
  6
CONTINUOUS
 62
    7
 10
244.77613870924932
 20
170.32443314390287
 40
24.07422636418438
 50
246.04384158266083
 51
282.53497214233994
  0
ARC
  8
_0-0_0
  6
CONTINUOUS
 62
    7
 10
244.77613870924944
 20
126.32366065414917
 40
24.074226364184561
 50
77.465027857660502
 51
113.95615841733941
  0
LINE
  8
_0-0_0
  6
CONTINUOUS
 62
    7
 10
244.79619113306345
 20
148.32404689902614
 11
250.00110008476165
 21
146.82404689902614
  0
LINE
  8
_0-0_0
  6
CONTINUOUS
 62
    7
 10
244.79619113306345
 20
148.32404689902614
 11
250.00110008476165
 21
149.82404689902614
  0
LINE
  8
_0-0_0
  6
CONTINUOUS
 62
    7
 10
244.79619113306345
 20
158.32404689902614
 11
250.00110008476165
 21
156.82404689902614
  0
LINE
  8
_0-0_0
  6
CONTINUOUS
 62
    7
 10
244.79619113306345
 20
158.32404689902614
 11
250.00110008476165
 21
159.82404689902614
  0
LINE
  8
_0-0_0
  6
CONTINUOUS
 62
    7
 10
210.00110008476167
 20
161.11913794732797
 11
210.00110008476167
 21
148.32404689902614
  0
ARC
  8
_0-0_0
  6
CONTINUOUS
 62
    7
 10
241.80420794722943
 20
160.76552998871125
 40
34.150083033320399
 50
167.21270172778176
 51
201.3656049298562
  0
ARC
  8
_0-0_0
  6
CONTINUOUS
 62
    7
 10
178.19799222229392
 20
160.76552998871128
 40
34.150083033320399
 50
338.63439507014368
 51
12.787298272218125
  0
LINE
  8
_0-0_0
  6
CONTINUOUS
 62
    7
 10
210.00110008476167
 20
161.11913794732797
 11
208.50110008476167
 21
168.32404689902609
  0
LINE
  8
_0-0_0
  6
CONTINUOUS
 62
    7
 10
210.00110008476167
 20
161.11913794732797
 11
211.50110008476167
 21
168.3240468990262
  0
LINE
  8
_0-0_0
  6
CONTINUOUS
 62
    7
 10
200.00110008476167
 20
161.11913794732797
 11
200.00110008476167
 21
148.32404689902614
  0
ARC
  8
_0-0_0
  6
CONTINUOUS
 62
    7
 10
231.80420794722946
 20
160.76552998871125
 40
34.150083033320399
 50
167.21270172778176
 51
201.3656049298562
  0
ARC
  8
_0-0_0
  6
CONTINUOUS
 62
    7
 10
168.19799222229392
 20
160.76552998871128
 40
34.150083033320399
 50
338.63439507014368
 51
12.787298272218125
  0
LINE
  8
_0-0_0
  6
CONTINUOUS
 62
    7
 10
200.00110008476167
 20
161.11913794732797
 11
198.50110008476167
 21
168.32404689902609
  0
LINE
  8
_0-0_0
  6
CONTINUOUS
 62
    7
 10
200.00110008476167
 20
161.11913794732797
 11
201.50110008476167
 21
168.3240468990262
  0
LINE
  8
_0-0_0
  6
CONTINUOUS
 62
    7
 10
220.00110008476167
 20
161.11913794732797
 11
220.00110008476167
 21
148.32404689902614
  0
ARC
  8
_0-0_0
  6
CONTINUOUS
 62
    7
 10
251.80420794722943
 20
160.76552998871125
 40
34.150083033320399
 50
167.21270172778176
 51
201.3656049298562
  0
ARC
  8
_0-0_0
  6
CONTINUOUS
 62
    7
 10
188.19799222229392
 20
160.76552998871128
 40
34.150083033320399
 50
338.63439507014368
 51
12.787298272218125
  0
LINE
  8
_0-0_0
  6
CONTINUOUS
 62
    7
 10
220.00110008476167
 20
161.11913794732797
 11
218.50110008476167
 21
168.32404689902609
  0
LINE
  8
_0-0_0
  6
CONTINUOUS
 62
    7
 10
220.00110008476167
 20
161.11913794732797
 11
221.50110008476167
 21
168.3240468990262
  0
LINE
  8
_0-0_0
  6
CONTINUOUS
 62
    7
 10
230.00110008476167
 20
163.11913794732797
 11
230.00110008476167
 21
153.32404689902614
  0
ARC
  8
_0-0_0
  6
CONTINUOUS
 62
    7
 10
252.00148632963845
 20
163.09908552351385
 40
24.07422636418438
 50
167.46502785766029
 51
203.95615841733877
  0
ARC
  8
_0-0_0
  6
CONTINUOUS
 62
    7
 10
208.00071383988472
 20
163.09908552351391
 40
24.074226364184561
 50
336.04384158266032
 51
12.534972142339326
  0
LINE
  8
_0-0_0
  6
CONTINUOUS
 62
    7
 10
230.00110008476167
 20
163.11913794732797
 11
228.50110008476167
 21
168.32404689902609
  0
LINE
  8
_0-0_0
  6
CONTINUOUS
 62
    7
 10
230.00110008476167
 20
163.11913794732797
 11
231.50110008476167
 21
168.3240468990262
  0
LINE
  8
_0-0_0
  6
CONTINUOUS
 62
    7
 10
240.00110008476165
 20
163.119137947328
 11
238.50110008476165
 21
168.32404689902609
  0
LINE
  8
_0-0_0
  6
CONTINUOUS
 62
    7
 10
240.00110008476165
 20
163.119137947328
 11
241.50110008476165
 21
168.3240468990262
  0
LINE
  8
_0-0_0
  6
CONTINUOUS
 62
    7
 10
190.00110008476167
 20
163.119137947328
 11
190.00110008476167
 21
153.32404689902614
  0
ARC
  8
_0-0_0
  6
CONTINUOUS
 62
    7
 10
168.0007138398849
 20
163.09908552351388
 40
24.07422636418438
 50
336.04384158266112
 51
12.53497214233974
  0
ARC
  8
_0-0_0
  6
CONTINUOUS
 62
    7
 10
212.00148632963862
 20
163.09908552351391
 40
24.074226364184561
 50
167.46502785766049
 51
203.95615841733979
  0
LINE
  8
_0-0_0
  6
CONTINUOUS
 62
    7
 10
190.00110008476167
 20
163.119137947328
 11
191.50110008476167
 21
168.3240468990262
  0
LINE
  8
_0-0_0
  6
CONTINUOUS
 62
    7
 10
190.00110008476167
 20
163.119137947328
 11
188.5011000847617
 21
168.3240468990262
  0
LINE
  8
_0-0_0
  6
CONTINUOUS
 62
    7
 10
180.00110008476167
 20
163.119137947328
 11
181.50110008476167
 21
168.3240468990262
  0
LINE
  8
_0-0_0
  6
CONTINUOUS
 62
    7
 10
180.00110008476167
 20
163.119137947328
 11
178.5011000847617
 21
168.3240468990262
  0
LINE
  8
_0-0_0
  6
CONTINUOUS
 62
    7
 10
177.20600903645985
 20
128.32404689902617
 11
190.00110008476165
 21
128.32404689902617
  0
ARC
  8
_0-0_0
  6
CONTINUOUS
 62
    7
 10
177.55961699507657
 20
160.1271547614939
 40
34.150083033320399
 50
257.21270172778128
 51
291.36560492985558
  0
ARC
  8
_0-0_0
  6
CONTINUOUS
 62
    7
 10
177.55961699507654
 20
96.520939036558417
 40
34.150083033320399
 50
68.634395070144336
 51
102.78729827221871
  0
LINE
  8
_0-0_0
  6
CONTINUOUS
 62
    7
 10
177.20600903645985
 20
128.32404689902617
 11
170.00110008476165
 21
126.82404689902617
  0
LINE
  8
_0-0_0
  6
CONTINUOUS
 62
    7
 10
177.20600903645985
 20
128.32404689902617
 11
170.00110008476165
 21
129.82404689902614
  0
LINE
  8
_0-0_0
  6
CONTINUOUS
 62
    7
 10
177.20600903645982
 20
118.32404689902617
 11
190.00110008476165
 21
118.32404689902617
  0
ARC
  8
_0-0_0
  6
CONTINUOUS
 62
    7
 10
177.55961699507657
 20
150.12715476149393
 40
34.150083033320399
 50
257.21270172778128
 51
291.36560492985558
  0
ARC
  8
_0-0_0
  6
CONTINUOUS
 62
    7
 10
177.55961699507654
 20
86.520939036558417
 40
34.150083033320399
 50
68.634395070144336
 51
102.7872982722171
  0
LINE
  8
_0-0_0
  6
CONTINUOUS
 62
    7
 10
177.20600903645982
 20
118.32404689902617
 11
170.00110008476165
 21
116.82404689902617
  0
LINE
  8
_0-0_0
  6
CONTINUOUS
 62
    7
 10
177.20600903645982
 20
118.32404689902617
 11
170.00110008476162
 21
119.82404689902617
  0
LINE
  8
_0-0_0
  6
CONTINUOUS
 62
    7
 10
177.20600903645985
 20
138.32404689902614
 11
190.00110008476165
 21
138.32404689902614
  0
ARC
  8
_0-0_0
  6
CONTINUOUS
 62
    7
 10
177.55961699507657
 20
170.1271547614939
 40
34.150083033320399
 50
257.21270172778128
 51
291.36560492985558
  0
ARC
  8
_0-0_0
  6
CONTINUOUS
 62
    7
 10
177.55961699507657
 20
106.5209390365584
 40
34.150083033320399
 50
68.634395070144336
 51
102.7872982722171
  0
LINE
  8
_0-0_0
  6
CONTINUOUS
 62
    7
 10
177.20600903645985
 20
138.32404689902614
 11
170.00110008476167
 21
136.82404689902617
  0
LINE
  8
_0-0_0
  6
CONTINUOUS
 62
    7
 10
177.20600903645985
 20
138.32404689902614
 11
170.00110008476165
 21
139.82404689902614
  0
LINE
  8
_0-0_0
  6
CONTINUOUS
 62
    7
 10
175.20600903645985
 20
148.32404689902614
 11
185.00110008476165
 21
148.32404689902614
  0
ARC
  8
_0-0_0
  6
CONTINUOUS
 62
    7
 10
175.22606146027397
 20
170.32443314390298
 40
24.07422636418438
 50
257.46502785766052
 51
293.95615841733951
  0
ARC
  8
_0-0_0
  6
CONTINUOUS
 62
    7
 10
175.22606146027388
 20
126.32366065414919
 40
24.074226364184561
 50
66.043841582660491
 51
102.5349721423395
  0
LINE
  8
_0-0_0
  6
CONTINUOUS
 62
    7
 10
175.20600903645985
 20
148.32404689902614
 11
170.00110008476167
 21
146.82404689902614
  0
LINE
  8
_0-0_0
  6
CONTINUOUS
 62
    7
 10
175.20600903645985
 20
148.32404689902614
 11
170.00110008476165
 21
149.82404689902614
  0
LINE
  8
_0-0_0
  6
CONTINUOUS
 62
    7
 10
175.20600903645985
 20
158.32404689902614
 11
170.00110008476167
 21
156.82404689902614
  0
LINE
  8
_0-0_0
  6
CONTINUOUS
 62
    7
 10
175.20600903645985
 20
158.32404689902614
 11
170.00110008476167
 21
159.82404689902614
  0
LINE
  8
_0-0_0
  6
CONTINUOUS
 62
    7
 10
175.20600903645982
 20
108.32404689902617
 11
185.00110008476165
 21
108.32404689902617
  0
ARC
  8
_0-0_0
  6
CONTINUOUS
 62
    7
 10
175.22606146027394
 20
86.323660654149364
 40
24.07422636418438
 50
66.043841582660491
 51
102.5349721423395
  0
ARC
  8
_0-0_0
  6
CONTINUOUS
 62
    7
 10
175.22606146027388
 20
130.32443314390312
 40
24.074226364184561
 50
257.46502785766052
 51
293.95615841733951
  0
LINE
  8
_0-0_0
  6
CONTINUOUS
 62
    7
 10
175.20600903645982
 20
108.32404689902617
 11
170.00110008476165
 21
109.82404689902617
  0
LINE
  8
_0-0_0
  6
CONTINUOUS
 62
    7
 10
175.20600903645982
 20
108.32404689902617
 11
170.00110008476162
 21
106.82404689902617
  0
LINE
  8
_0-0_0
  6
CONTINUOUS
 62
    7
 10
175.20600903645982
 20
98.324046899026172
 11
170.00110008476162
 21
99.824046899026172
  0
LINE
  8
_0-0_0
  6
CONTINUOUS
 62
    7
 10
175.20600903645982
 20
98.324046899026172
 11
170.00110008476162
 21
96.824046899026172
  0
LINE
  8
_0-0_0
  6
CONTINUOUS
 62
    7
 10
210.00110008476162
 20
95.528955850724316
 11
210.00110008476165
 21
108.32404689902611
  0
ARC
  8
_0-0_0
  6
CONTINUOUS
 62
    7
 10
178.19799222229389
 20
95.882563809341079
 40
34.150083033320399
 50
347.21270172778122
 51
21.365604929855539
  0
ARC
  8
_0-0_0
  6
CONTINUOUS
 62
    7
 10
241.80420794722934
 20
95.882563809341008
 40
34.150083033320399
 50
158.63439507014439
 51
192.7872982722171
  0
LINE
  8
_0-0_0
  6
CONTINUOUS
 62
    7
 10
210.00110008476162
 20
95.528955850724316
 11
211.50110008476162
 21
88.324046899026129
  0
LINE
  8
_0-0_0
  6
CONTINUOUS
 62
    7
 10
210.00110008476162
 20
95.528955850724316
 11
208.50110008476162
 21
88.324046899026115
  0
LINE
  8
_0-0_0
  6
CONTINUOUS
 62
    7
 10
220.00110008476165
 20
95.528955850724316
 11
220.00110008476167
 21
108.32404689902611
  0
ARC
  8
_0-0_0
  6
CONTINUOUS
 62
    7
 10
188.19799222229389
 20
95.882563809341065
 40
34.150083033320399
 50
347.21270172778122
 51
21.365604929855539
  0
ARC
  8
_0-0_0
  6
CONTINUOUS
 62
    7
 10
251.80420794722934
 20
95.882563809341008
 40
34.150083033320399
 50
158.63439507014439
 51
192.7872982722171
  0
LINE
  8
_0-0_0
  6
CONTINUOUS
 62
    7
 10
220.00110008476165
 20
95.528955850724316
 11
221.50110008476162
 21
88.324046899026115
  0
LINE
  8
_0-0_0
  6
CONTINUOUS
 62
    7
 10
220.00110008476165
 20
95.528955850724316
 11
218.50110008476162
 21
88.324046899026115
  0
LINE
  8
_0-0_0
  6
CONTINUOUS
 62
    7
 10
200.00110008476162
 20
95.52895585072433
 11
200.00110008476165
 21
108.32404689902614
  0
ARC
  8
_0-0_0
  6
CONTINUOUS
 62
    7
 10
168.19799222229389
 20
95.882563809341079
 40
34.150083033320399
 50
347.21270172778122
 51
21.365604929855539
  0
ARC
  8
_0-0_0
  6
CONTINUOUS
 62
    7
 10
231.80420794722937
 20
95.882563809341022
 40
34.150083033320399
 50
158.63439507014439
 51
192.7872982722171
  0
LINE
  8
_0-0_0
  6
CONTINUOUS
 62
    7
 10
200.00110008476162
 20
95.52895585072433
 11
201.50110008476162
 21
88.324046899026143
  0
LINE
  8
_0-0_0
  6
CONTINUOUS
 62
    7
 10
200.00110008476162
 20
95.52895585072433
 11
198.50110008476162
 21
88.324046899026129
  0
LINE
  8
_0-0_0
  6
CONTINUOUS
 62
    7
 10
190.00110008476162
 20
93.528955850724344
 11
190.00110008476165
 21
103.32404689902617
  0
ARC
  8
_0-0_0
  6
CONTINUOUS
 62
    7
 10
168.00071383988484
 20
93.54900827453848
 40
24.07422636418438
 50
347.46502785766057
 51
23.956158417339559
  0
ARC
  8
_0-0_0
  6
CONTINUOUS
 62
    7
 10
212.00148632963862
 20
93.549008274538366
 40
24.074226364184561
 50
156.04384158266041
 51
192.5349721423394
  0
LINE
  8
_0-0_0
  6
CONTINUOUS
 62
    7
 10
190.00110008476162
 20
93.528955850724344
 11
191.50110008476162
 21
88.324046899026172
  0
LINE
  8
_0-0_0
  6
CONTINUOUS
 62
    7
 10
190.00110008476162
 20
93.528955850724344
 11
188.50110008476162
 21
88.324046899026143
  0
LINE
  8
_0-0_0
  6
CONTINUOUS
 62
    7
 10
180.00110008476162
 20
93.528955850724344
 11
181.50110008476162
 21
88.324046899026172
  0
LINE
  8
_0-0_0
  6
CONTINUOUS
 62
    7
 10
180.00110008476162
 20
93.528955850724344
 11
178.50110008476162
 21
88.324046899026172
  0
LINE
  8
_0-0_0
  6
CONTINUOUS
 62
    7
 10
230.00110008476162
 20
93.528955850724316
 11
230.00110008476165
 21
103.32404689902611
  0
ARC
  8
_0-0_0
  6
CONTINUOUS
 62
    7
 10
252.00148632963845
 20
93.549008274538409
 40
24.07422636418438
 50
156.04384158266049
 51
192.53497214233943
  0
ARC
  8
_0-0_0
  6
CONTINUOUS
 62
    7
 10
208.00071383988467
 20
93.549008274538366
 40
24.074226364184561
 50
347.46502785766057
 51
23.956158417339559
  0
LINE
  8
_0-0_0
  6
CONTINUOUS
 62
    7
 10
230.00110008476162
 20
93.528955850724316
 11
228.50110008476162
 21
88.324046899026115
  0
LINE
  8
_0-0_0
  6
CONTINUOUS
 62
    7
 10
230.00110008476162
 20
93.528955850724316
 11
231.50110008476162
 21
88.324046899026115
  0
LINE
  8
_0-0_0
  6
CONTINUOUS
 62
    7
 10
240.00110008476165
 20
93.528955850724273
 11
238.50110008476165
 21
88.324046899026115
  0
LINE
  8
_0-0_0
  6
CONTINUOUS
 62
    7
 10
240.00110008476165
 20
93.528955850724273
 11
241.50110008476165
 21
88.324046899026087
  0
LINE
  8
_0-0_0
  6
CONTINUOUS
 62
    7
 10
170.0011000847617
 20
190.67692224884627
 11
250.00110008476165
 21
190.67692224884627
  0
LINE
  8
_0-0_0
  6
CONTINUOUS
 62
    7
 10
195.92990144438195
 20
208.67692224884638
 11
224.07229872514145
 21
208.67692224884638
  0
LINE
  8
_0-0_0
  6
CONTINUOUS
 62
    7
 10
170.0011000847617
 20
190.67692224884627
 11
170.0011000847617
 21
195.6769222488463
  0
LINE
  8
_0-0_0
  6
CONTINUOUS
 62
    7
 10
170.0011000847617
 20
195.6769222488463
 11
178.50110008476167
 21
195.6769222488463
  0
LINE
  8
_0-0_0
  6
CONTINUOUS
 62
    7
 10
210.0011000847617
 20
198.06323461530579
 11
210.0011000847619
 21
208.67692224884578
  0
ARC
  8
_0-0_0
  6
CONTINUOUS
 62
    7
 10
233.73926619964894
 20
197.6362417392717
 40
26.180090844236204
 50
155.0567436010561
 51
184.29203241667182
  0
ARC
  8
_0-0_0
  6
CONTINUOUS
 62
    7
 10
186.26293396987046
 20
197.63624173927209
 40
26.180090844240109
 50
355.70796758332745
 51
24.94325639894107
  0
LINE
  8
_0-0_0
  6
CONTINUOUS
 62
    7
 10
200.00110008476167
 20
198.06323461530599
 11
200.00110008476167
 21
208.67692224884578
  0
ARC
  8
_0-0_0
  6
CONTINUOUS
 62
    7
 10
223.73926619965093
 20
197.6362417392719
 40
26.18009084423813
 50
155.0567436010584
 51
184.2920324166717
  0
ARC
  8
_0-0_0
  6
CONTINUOUS
 62
    7
 10
176.60829033513625
 20
197.74594244491459
 40
25.820725540854269
 50
355.40394967232976
 51
25.045718894032984
  0
ARC
  8
_0-0_0
  6
CONTINUOUS
 62
    7
 10
168.0007138398849
 20
195.90188362435859
 40
24.07422636418438
 50
359.46459235015726
 51
23.956158417339509
  0
ARC
  8
_0-0_0
  6
CONTINUOUS
 62
    7
 10
212.00148632963862
 20
195.90188362435859
 40
24.074226364184561
 50
156.04384158266041
 51
180.5354076498426
  0
LINE
  8
_0-0_0
  6
CONTINUOUS
 62
    7
 10
180.00110008476167
 20
198.06323461530599
 11
181.50110008476167
 21
195.6769222488463
  0
LINE
  8
_0-0_0
  6
CONTINUOUS
 62
    7
 10
180.00110008476167
 20
198.06323461530599
 11
178.5011000847617
 21
195.6769222488463
  0
LINE
  8
_0-0_0
  6
CONTINUOUS
 62
    7
 10
185.03013443247369
 20
205.44579457485909
 11
170.0011000847617
 21
195.6769222488463
  0
ARC
  8
_0-0_0
  6
CONTINUOUS
 62
    7
 10
195.92990144438195
 20
188.67692224884638
 40
20
 50
90
 51
123.0238675557966
  0
LINE
  8
_0-0_0
  6
CONTINUOUS
 62
    7
 10
178.5011000847617
 20
195.6769222488463
 11
179.51680148007063
 21
193.81419617114619
  0
LINE
  8
_0-0_0
  6
CONTINUOUS
 62
    7
 10
180.38571401013567
 20
193.79830045483359
 11
181.50110008476167
 21
195.6769222488463
  0
LINE
  8
_0-0_0
  6
CONTINUOUS
 62
    7
 10
181.50110008476167
 20
195.6769222488463
 11
187.92831106309922
 21
195.6769222488463
  0
LINE
  8
_0-0_0
  6
CONTINUOUS
 62
    7
 10
250.00110008476165
 20
190.67692224884627
 11
250.00110008476165
 21
195.6769222488463
  0
LINE
  8
_0-0_0
  6
CONTINUOUS
 62
    7
 10
234.97206573704966
 20
205.44579457485909
 11
250.00110008476165
 21
195.6769222488463
  0
ARC
  8
_0-0_0
  6
CONTINUOUS
 62
    7
 10
224.07229872514142
 20
188.67692224884638
 40
20
 50
56.976132444203209
 51
90
  0
LINE
  8
_0-0_0
  6
CONTINUOUS
 62
    7
 10
187.92831106309922
 20
195.6769222488463
 11
189.04724118252977
 21
193.32800932291568
  0
LINE
  8
_0-0_0
  6
CONTINUOUS
 62
    7
 10
189.49864158754522
 20
193.04303879613246
 11
190.50355858197818
 21
193.04303879613246
  0
LINE
  8
_0-0_0
  6
CONTINUOUS
 62
    7
 10
190.95495898699363
 20
193.32800932291568
 11
192.07388910642416
 21
195.6769222488463
  0
LINE
  8
_0-0_0
  6
CONTINUOUS
 62
    7
 10
192.07388910642416
 20
195.6769222488463
 11
197.63259609894681
 21
195.6769222488463
  0
LINE
  8
_0-0_0
  6
CONTINUOUS
 62
    7
 10
190.00110008476167
 20
205.67692224884638
 11
190.00110008476167
 21
198.06323461530599
  0
LINE
  8
_0-0_0
  6
CONTINUOUS
 62
    7
 10
190.00110008476167
 20
198.06323461530599
 11
187.92831106309922
 21
195.6769222488463
  0
LINE
  8
_0-0_0
  6
CONTINUOUS
 62
    7
 10
190.00110008476167
 20
198.06323461530599
 11
192.07388910642416
 21
195.6769222488463
  0
ARC
  8
_0-0_0
  6
CONTINUOUS
 62
    7
 10
179.95578205552292
 20
194.05356211353478
 40
0.5
 50
208.60261212047061
 51
329.30130606023522
  0
ARC
  8
_0-0_0
  6
CONTINUOUS
 62
    7
 10
189.49864158754522
 20
193.54303879613246
 40
0.5
 50
205.4713010887622
 51
270
  0
ARC
  8
_0-0_0
  6
CONTINUOUS
 62
    7
 10
190.50355858197818
 20
193.54303879613246
 40
0.5
 50
270
 51
334.528698911238
  0
LINE
  8
_0-0_0
  6
CONTINUOUS
 62
    7
 10
200.00110008476167
 20
198.06323461530599
 11
197.63259609894678
 21
195.6769222488463
  0
LINE
  8
_0-0_0
  6
CONTINUOUS
 62
    7
 10
200.00110008476167
 20
198.06323461530599
 11
202.3459868692938
 21
195.6769222488463
  0
LINE
  8
_0-0_0
  6
CONTINUOUS
 62
    7
 10
197.63259609894678
 20
195.6769222488463
 11
199.04724118252977
 21
193.32800932291576
  0
ARC
  8
_0-0_0
  6
CONTINUOUS
 62
    7
 10
199.49864158754519
 20
193.54303879613258
 40
0.5
 50
205.4713010887622
 51
270
  0
LINE
  8
_0-0_0
  6
CONTINUOUS
 62
    7
 10
199.49864158754519
 20
193.04303879613258
 11
200.50355858197815
 21
193.04303879613258
  0
LINE
  8
_0-0_0
  6
CONTINUOUS
 62
    7
 10
200.95495898699363
 20
193.32800932291576
 11
202.3459868692938
 21
195.6769222488463
  0
ARC
  8
_0-0_0
  6
CONTINUOUS
 62
    7
 10
200.50355858197815
 20
193.54303879613258
 40
0.5
 50
270
 51
334.528698911238
  0
LINE
  8
_0-0_0
  6
CONTINUOUS
 62
    7
 10
202.3459868692938
 20
195.6769222488463
 11
207.63259609894675
 21
195.6769222488463
  0
LINE
  8
_0-0_0
  6
CONTINUOUS
 62
    7
 10
210.0011000847617
 20
198.06323461530579
 11
207.63259609894681
 21
195.6769222488461
  0
LINE
  8
_0-0_0
  6
CONTINUOUS
 62
    7
 10
210.0011000847617
 20
198.06323461530579
 11
212.36960407057654
 21
195.6769222488461
  0
LINE
  8
_0-0_0
  6
CONTINUOUS
 62
    7
 10
207.63259609894681
 20
195.6769222488461
 11
209.04724118252977
 21
193.32800932291559
  0
ARC
  8
_0-0_0
  6
CONTINUOUS
 62
    7
 10
209.49864158754522
 20
193.54303879613238
 40
0.5
 50
205.4713010887622
 51
270
  0
LINE
  8
_0-0_0
  6
CONTINUOUS
 62
    7
 10
209.49864158754522
 20
193.04303879613238
 11
210.50355858197818
 21
193.04303879613238
  0
LINE
  8
_0-0_0
  6
CONTINUOUS
 62
    7
 10
210.95495898699363
 20
193.32800932291559
 11
212.36960407057654
 21
195.6769222488461
  0
ARC
  8
_0-0_0
  6
CONTINUOUS
 62
    7
 10
210.50355858197818
 20
193.54303879613238
 40
0.5
 50
270
 51
334.528698911238
  0
LINE
  8
_0-0_0
  6
CONTINUOUS
 62
    7
 10
250.00110008476165
 20
195.6769222488463
 11
241.50110008476165
 21
195.6769222488463
  0
LINE
  8
_0-0_0
  6
CONTINUOUS
 62
    7
 10
238.50110008476165
 20
195.6769222488463
 11
232.07388910642419
 21
195.6769222488463
  0
LINE
  8
_0-0_0
  6
CONTINUOUS
 62
    7
 10
227.92831106309922
 20
195.6769222488463
 11
222.3696040705766
 21
195.6769222488463
  0
LINE
  8
_0-0_0
  6
CONTINUOUS
 62
    7
 10
217.65621330022958
 20
195.6769222488463
 11
212.36960407057663
 21
195.6769222488463
  0
LINE
  8
_0-0_0
  6
CONTINUOUS
 62
    7
 10
220.00110008476167
 20
198.06323461530599
 11
220.00110008476167
 21
208.67692224884578
  0
ARC
  8
_0-0_0
  6
CONTINUOUS
 62
    7
 10
196.26293396987245
 20
197.6362417392719
 40
26.18009084423813
 50
355.70796758332824
 51
24.94325639894144
  0
ARC
  8
_0-0_0
  6
CONTINUOUS
 62
    7
 10
243.39390983438716
 20
197.74594244491459
 40
25.820725540854269
 50
154.9542811059668
 51
184.5960503276703
  0
ARC
  8
_0-0_0
  6
CONTINUOUS
 62
    7
 10
252.00148632963845
 20
195.90188362435859
 40
24.07422636418438
 50
156.04384158266021
 51
180.5354076498428
  0
ARC
  8
_0-0_0
  6
CONTINUOUS
 62
    7
 10
208.00071383988472
 20
195.90188362435859
 40
24.074226364184561
 50
359.46459235015737
 51
23.956158417339839
  0
LINE
  8
_0-0_0
  6
CONTINUOUS
 62
    7
 10
240.00110008476165
 20
198.06323461530599
 11
238.50110008476165
 21
195.6769222488463
  0
LINE
  8
_0-0_0
  6
CONTINUOUS
 62
    7
 10
240.00110008476165
 20
198.06323461530599
 11
241.50110008476165
 21
195.6769222488463
  0
LINE
  8
_0-0_0
  6
CONTINUOUS
 62
    7
 10
241.50110008476165
 20
195.6769222488463
 11
240.48539868945272
 21
193.81419617114619
  0
ARC
  8
_0-0_0
  6
CONTINUOUS
 62
    7
 10
240.04641811400046
 20
194.05356211353478
 40
0.5
 50
210.6986939397645
 51
331.39738787952939
  0
LINE
  8
_0-0_0
  6
CONTINUOUS
 62
    7
 10
239.61648615938765
 20
193.79830045483359
 11
238.50110008476165
 21
195.6769222488463
  0
LINE
  8
_0-0_0
  6
CONTINUOUS
 62
    7
 10
232.07388910642419
 20
195.6769222488463
 11
230.95495898699363
 21
193.32800932291568
  0
ARC
  8
_0-0_0
  6
CONTINUOUS
 62
    7
 10
230.50355858197815
 20
193.54303879613246
 40
0.5
 50
270
 51
334.52869891123748
  0
LINE
  8
_0-0_0
  6
CONTINUOUS
 62
    7
 10
230.50355858197815
 20
193.04303879613246
 11
229.49864158754519
 21
193.04303879613246
  0
LINE
  8
_0-0_0
  6
CONTINUOUS
 62
    7
 10
229.04724118252977
 20
193.32800932291568
 11
227.92831106309922
 21
195.6769222488463
  0
ARC
  8
_0-0_0
  6
CONTINUOUS
 62
    7
 10
229.49864158754519
 20
193.54303879613246
 40
0.5
 50
205.47130108876232
 51
270
  0
LINE
  8
_0-0_0
  6
CONTINUOUS
 62
    7
 10
230.00110008476167
 20
205.67692224884638
 11
230.00110008476167
 21
198.06323461530599
  0
LINE
  8
_0-0_0
  6
CONTINUOUS
 62
    7
 10
230.00110008476167
 20
198.06323461530599
 11
232.07388910642419
 21
195.6769222488463
  0
LINE
  8
_0-0_0
  6
CONTINUOUS
 62
    7
 10
230.00110008476167
 20
198.06323461530599
 11
227.92831106309922
 21
195.6769222488463
  0
LINE
  8
_0-0_0
  6
CONTINUOUS
 62
    7
 10
220.00110008476167
 20
198.06323461530599
 11
222.3696040705766
 21
195.6769222488463
  0
LINE
  8
_0-0_0
  6
CONTINUOUS
 62
    7
 10
220.00110008476167
 20
198.06323461530599
 11
217.65621330022958
 21
195.6769222488463
  0
LINE
  8
_0-0_0
  6
CONTINUOUS
 62
    7
 10
222.3696040705766
 20
195.6769222488463
 11
220.95495898699363
 21
193.32800932291576
  0
ARC
  8
_0-0_0
  6
CONTINUOUS
 62
    7
 10
220.50355858197815
 20
193.54303879613258
 40
0.5
 50
270
 51
334.52869891123748
  0
LINE
  8
_0-0_0
  6
CONTINUOUS
 62
    7
 10
220.50355858197815
 20
193.04303879613258
 11
219.49864158754519
 21
193.04303879613258
  0
LINE
  8
_0-0_0
  6
CONTINUOUS
 62
    7
 10
219.04724118252977
 20
193.32800932291576
 11
217.65621330022958
 21
195.6769222488463
  0
ARC
  8
_0-0_0
  6
CONTINUOUS
 62
    7
 10
219.49864158754519
 20
193.54303879613258
 40
0.5
 50
205.47130108876232
 51
270
  0
ENDSEC
  0
EOF
