  0
SECTION
  2
HEADER
  9
$ACADVER
  1
AC1009
  9
$INSBASE
 10
0
 20
0
 30
0
  9
$EXTMIN
 10
0
 20
0
  9
$EXTMAX
 10
420
 20
297
  9
$LIMMIN
 10
0
 20
0
  9
$LIMMAX
 10
420
 20
297
  9
$LTSCALE
 40
1
  0
ENDSEC
  0
SECTION
  2
TABLES
  0
TABLE
  2
LTYPE
 70
     9
  0
LTYPE
  2
CONTINUOUS
 70
    64
  3
実線
 72
    65
 73
     0
 40
0.0
  0
LTYPE
  2
DASHED1
 70
    64
  3
--  --  --  --  --  --  --  --  
 72
    65
 73
     2
 40
2.5
 49
1.25
 49
-1.25
  0
LTYPE
  2
DASHED2
 70
    64
  3
----    ----    ----    ----    
 72
    65
 73
     2
 40
5.0
 49
2.5
 49
-2.5
  0
LTYPE
  2
DASHED3
 70
    64
  3
------  ------  ------  ------  
 72
    65
 73
     2
 40
5.0
 49
3.75
 49
-1.25
  0
LTYPE
  2
CENTER1
 70
    64
  3
----- - ----- - ----- - ----- - 
 72
    65
 73
     4
 40
10.0
 49
6.25
 49
-1.25
 49
1.25
 49
-1.25
  0
LTYPE
  2
CENTER2
 70
    64
  3
----------  --  ----------  --  
 72
    65
 73
     4
 40
20.0
 49
12.5
 49
-2.5
 49
2.5
 49
-2.5
  0
LTYPE
  2
PHANTOM1
 70
    64
  3
--- - - --- - - --- - - --- - - 
 72
    65
 73
     6
 40
10.0
 49
3.25
 49
-1.25
 49
1.25
 49
-1.25
 49
1.25
 49
-1.25
  0
LTYPE
  2
PHANTOM2
 70
    64
  3
--------  -  -  --------  -  -  
 72
    65
 73
     6
 40
20.0
 49
10.0
 49
-2.5
 49
1.25
 49
-2.5
 49
1.25
 49
-2.5
  0
LTYPE
  2
DOT
 70
    64
  3
-   -   -   -   -   -   -   -   
 72
    65
 73
     2
 40
2.5
 49
0.625
 49
-1.875
  0
LTYPE
  2
DUMMY
 70
    64
  3
ダミー
 72
    65
 73
     0
 40
0.0
  0
LTYPE
  2
RAND1
 70
    64
  3
ランダム線1
 72
    65
 73
     4
 40
10.0
 49
1.0
 49
-2.0
 49
3.0
 49
-4.0
  0
LTYPE
  2
RAND2
 70
    64
  3
ランダム線2
 72
    65
 73
     4
 40
14.0
 49
2.0
 49
-3.0
 49
4.0
 49
-5.0
  0
LTYPE
  2
RAND3
 70
    64
  3
ランダム線3
 72
    65
 73
     4
 40
18.0
 49
3.0
 49
-4.0
 49
5.0
 49
-6.0
  0
LTYPE
  2
RAND4
 70
    64
  3
ランダム線4
 72
    65
 73
     4
 40
22.0
 49
4.0
 49
-5.0
 49
6.0
 49
-7.0
  0
LTYPE
  2
RAND5
 70
    64
  3
ランダム線5
 72
    65
 73
     4
 40
26.0
 49
5.0
 49
-6.0
 49
7.0
 49
-8.0
  0
LTYPE
  2
LONG1
 70
    64
  3
----------  --  ----------  --  
 72
    65
 73
     4
 40
40.0
 49
32.5
 49
-2.5
 49
2.5
 49
-2.5
  0
LTYPE
  2
LONG2
 70
    64
  3
--------  -  -  --------  -  -  
 72
    65
 73
     6
 40
40.0
 49
30.0
 49
-2.5
 49
1.25
 49
-2.5
 49
1.25
 49
-2.5
  0
LTYPE
  2
LONG3
 70
    64
  3
+++++++++++++++..+++++++++++++++
 72
    65
 73
     2
 40
40.0
 49
37.5
 49
-2.5
  0
LTYPE
  2
LONG4
 70
    64
  3
+++++++++++++++..+++++++++++++++
 72
    65
 73
     2
 40
80.0
 49
75.0
 49
-5.0
  0
LTYPE
  2
LONG5
 70
    64
  3
----------  --  ----------  --  
 72
    65
 73
     4
 40
60.0
 49
37.5
 49
-7.5
 49
7.5
 49
-7.5
  0
LTYPE
  2
dashed
 70
   64
  3
-------   -------------   ------
 72
   65
 73
    2
 40
7.5
 49
6
 49
-1.5
  0
LTYPE
  2
dashed_spaced
 70
   64
  3
----        --------        ----
 72
   65
 73
    2
 40
12
 49
6
 49
-6
  0
LTYPE
  2
long_dashed_dotted
 70
   64
  3
------------- --- --------------
 72
   65
 73
    4
 40
15.25
 49
12
 49
-1.5
 49
0.25
 49
-1.5
  0
LTYPE
  2
long_dashed_double-dotted
 70
   64
  3
----------- --- --- ------------
 72
   65
 73
    6
 40
17
 49
12
 49
-1.5
 49
0.25
 49
-1.5
 49
0.25
 49
-1.5
  0
LTYPE
  2
long_dashed_triplicate-dotted
 70
   64
  3
--------- --- --- --- ----------
 72
   65
 73
    8
 40
18.75
 49
12
 49
-1.5
 49
0.25
 49
-1.5
 49
0.25
 49
-1.5
 49
0.25
 49
-1.5
  0
LTYPE
  2
dotted
 70
   64
  3
   -       -       -       -    
 72
   65
 73
    2
 40
1.75
 49
0.25
 49
-1.5
  0
LTYPE
  2
chain
 70
   64
  3
-------------- -- --------------
 72
   65
 73
    4
 40
18.5
 49
12
 49
-1.5
 49
3.5
 49
-1.5
  0
LTYPE
  2
chain_double_dash
 70
   64
  3
------------ -- -- -------------
 72
   65
 73
    6
 40
23.5
 49
12
 49
-1.5
 49
3.5
 49
-1.5
 49
3.5
 49
-1.5
  0
LTYPE
  2
dashed_dotted
 70
   64
  3
-----------     -     ----------
 72
   65
 73
    4
 40
9.25
 49
6
 49
-1.5
 49
0.25
 49
-1.5
  0
LTYPE
  2
double-dashed_dotted
 70
   64
  3
------   -----------   -   -----
 72
   65
 73
    6
 40
16.75
 49
6
 49
-1.5
 49
6
 49
-1.5
 49
0.25
 49
-1.5
  0
LTYPE
  2
dashed_double-dotted
 70
   64
  3
---------    -    -    ---------
 72
   65
 73
    6
 40
11
 49
6
 49
-1.5
 49
0.25
 49
-1.5
 49
0.25
 49
-1.5
  0
LTYPE
  2
double-dashed_double-dotted
 70
   64
  3
-----   ---------   -   -   ----
 72
   65
 73
    8
 40
18.5
 49
6
 49
-1.5
 49
6
 49
-1.5
 49
0.25
 49
-1.5
 49
0.25
 49
-1.5
  0
LTYPE
  2
dashed_triplicate-dotted
 70
   64
  3
-------    -    -    -    ------
 72
   65
 73
    8
 40
12.75
 49
6
 49
-1.5
 49
0.25
 49
-1.5
 49
0.25
 49
-1.5
 49
0.25
 49
-1.5
  0
LTYPE
  2
double-dashed_triplicate-dotted
 70
   64
  3
-----  ---------  -  -  -  -----
 72
   65
 73
   10
 40
20.25
 49
6
 49
-1.5
 49
6
 49
-1.5
 49
0.25
 49
-1.5
 49
0.25
 49
-1.5
 49
0.25
 49
-1.5
  0
LTYPE
  2
undefined
 70
   64
  3
--------------------------------
 72
   65
 73
    0
 40
0
  0
ENDTAB
  0
TABLE
  2
STYLE
  5
3
100
AcDbSymbolTable
 70
     1
  0
STYLE
  5
10
100
AcDbSymbolTableRecord
100
AcDbTextStyleTableRecord
  2
STANDARD
 70
     0
 40
0.0
 41
1.0
 50
0.0
 71
     0
 42
0.2
  3
txt
  4
bigfont.shx
  0
STYLE
  5
26
100
AcDbSymbolTableRecord
100
AcDbTextStyleTableRecord
  2
TATEGAKI
 70
    68
 40
0.0
 41
1.0
 50
0.0
 71
     0
 42
1.0
  3
txt
  4
bigfont.shx
  0
ENDTAB
  0
TABLE
  2
LAYER
 70
    2
  0
LAYER
  2
_0-0_0
 70
   64
 62
    7
  6
CONTINUOUS
  0
LAYER
  2
ADD_LINE
 70
   64
 62
    7
  6
CONTINUOUS
  0
ENDTAB
  0
ENDSEC
  0
SECTION
  2
BLOCKS
  0
ENDSEC
  0
SECTION
  2
ENTITIES
  0
LINE
  8
_0-0_0
  6
CONTINUOUS
 62
    7
 10
78.061682662877956
 20
301.11675930589649
 11
77.596910662877974
 21
292.79544730589646
  0
CIRCLE
  8
_0-0_0
  6
CONTINUOUS
 62
    7
 10
78.241626662877962
 20
281.15872830589649
 40
9.4139309999999998
  0
LINE
  8
_0-0_0
  6
CONTINUOUS
 62
    7
 10
77.650240662877962
 20
238.3809513058965
 11
79.739268662877976
 21
237.81940430589651
  0
LINE
  8
_0-0_0
  6
CONTINUOUS
 62
    7
 10
76.700682662877966
 20
235.6534333058965
 11
80.024135662877967
 21
234.77099930589651
  0
LINE
  8
_0-0_0
  6
CONTINUOUS
 62
    7
 10
72.807494662877957
 20
237.81940430589651
 11
79.169533662877967
 21
235.6534333058965
  0
LINE
  8
_0-0_0
  6
CONTINUOUS
 62
    7
 10
76.415815662877975
 20
327.2661383058965
 11
77.93510866287798
 21
327.58702830589652
  0
ARC
  8
_0-0_0
  6
CONTINUOUS
 62
    7
 10
78.241626662877962
 20
314.5391503058965
 40
14.063708
 50
90.000003000000007
 51
161.27752799999999
  0
LINE
  8
_0-0_0
  6
CONTINUOUS
 62
    7
 10
37.892091662877959
 20
283.65946330589651
 11
39.751182662877966
 21
283.4848903058965
  0
LINE
  8
_0-0_0
  6
CONTINUOUS
 62
    7
 10
68.906038662877961
 20
241.4616763058965
 11
70.32552366287797
 21
240.7078843058965
  0
LINE
  8
_0-0_0
  6
CONTINUOUS
 62
    7
 10
70.908379662877962
 20
238.3809513058965
 11
72.807494662877957
 21
235.97431730589648
  0
LINE
  8
_0-0_0
  6
CONTINUOUS
 62
    7
 10
72.393914662877961
 20
240.43377330589649
 11
73.691728662877978
 21
241.22183530589649
  0
LINE
  8
_0-0_0
  6
CONTINUOUS
 62
    7
 10
71.379997662877969
 20
240.57082430589651
 11
72.028904662877977
 21
240.43377330589649
  0
LINE
  8
_0-0_0
  6
CONTINUOUS
 62
    7
 10
43.602148662877966
 20
267.54056030589652
 11
51.901652662877979
 21
269.86820030589649
  0
LINE
  8
_0-0_0
  6
CONTINUOUS
 62
    7
 10
40.813517662877956
 20
270.68287430589646
 11
51.038503662877957
 21
272.19583930589647
  0
LINE
  8
_0-0_0
  6
CONTINUOUS
 62
    7
 10
43.203773662877978
 20
268.76257130589647
 11
51.702464662877958
 21
271.14840230589652
  0
LINE
  8
_0-0_0
  6
CONTINUOUS
 62
    7
 10
42.938190662877986
 20
272.19583930589647
 11
47.652307662877973
 21
274.29071530589647
  0
LINE
  8
_0-0_0
  6
CONTINUOUS
 62
    7
 10
42.340624662877957
 20
274.5234793058965
 11
50.440937662877957
 21
274.93081530589649
  0
LINE
  8
_0-0_0
  6
CONTINUOUS
 62
    7
 10
40.813517662877956
 20
275.16357930589652
 11
48.913830662877984
 21
276.21101730589646
  0
LINE
  8
_0-0_0
  6
CONTINUOUS
 62
    7
 10
66.188743662877954
 20
278.3976233058965
 11
42.625309662877982
 21
272.19594730589648
  0
LINE
  8
_0-0_0
  6
CONTINUOUS
 62
    7
 10
43.92312766287796
 20
250.81558530589649
 11
43.11198966287796
 21
251.1924833058965
  0
LINE
  8
_0-0_0
  6
CONTINUOUS
 62
    7
 10
41.32749766287796
 20
256.12641030589651
 11
41.449165662877959
 21
259.48422330589653
  0
LINE
  8
_0-0_0
  6
CONTINUOUS
 62
    7
 10
41.814174662877974
 20
252.87138930589651
 11
41.32749766287796
 21
254.5502933058965
  0
LINE
  8
_0-0_0
  6
CONTINUOUS
 62
    7
 10
41.692506662877975
 20
261.16313330589651
 11
42.341412662877957
 21
262.32808730589647
  0
LINE
  8
_0-0_0
  6
CONTINUOUS
 62
    7
 10
33.68570166287796
 20
276.64650730589653
 11
35.774734662877961
 21
272.39478030589646
  0
LINE
  8
_0-0_0
  6
CONTINUOUS
 62
    7
 10
38.610196662877968
 20
270.89393830589648
 11
36.01456966287796
 21
274.11469830589647
  0
LINE
  8
_0-0_0
  6
CONTINUOUS
 62
    7
 10
40.39469166287796
 20
272.81268830589647
 11
39.502446662877986
 21
273.97764530589649
  0
LINE
  8
_0-0_0
  6
CONTINUOUS
 62
    7
 10
42.46308666287797
 20
266.98791130589649
 11
41.692506662877975
 21
268.42697430589647
  0
LINE
  8
_0-0_0
  6
CONTINUOUS
 62
    7
 10
42.868648662877973
 20
263.63009830589647
 11
43.11198966287796
 21
265.0691603058965
  0
LINE
  8
_0-0_0
  6
CONTINUOUS
 62
    7
 10
40.39469166287796
 20
268.94092330589649
 11
37.677396662877953
 21
270.10587930589651
  0
LINE
  8
_0-0_0
  6
CONTINUOUS
 62
    7
 10
41.814174662877974
 20
272.29873730589645
 11
40.678591662877977
 21
272.7098993058965
  0
LINE
  8
_0-0_0
  6
CONTINUOUS
 62
    7
 10
35.302646662877976
 20
282.61202530589651
 11
41.676663662877985
 21
281.97192430589649
  0
LINE
  8
_0-0_0
  6
CONTINUOUS
 62
    7
 10
34.825175662877967
 20
280.25646530589648
 11
37.57888966287797
 21
278.17071230589647
  0
LINE
  8
_0-0_0
  6
CONTINUOUS
 62
    7
 10
39.259108662877964
 20
277.60956430589647
 11
40.273023662877961
 21
278.3976233058965
  0
LINE
  8
_0-0_0
  6
CONTINUOUS
 62
    7
 10
38.975211662877967
 20
274.62864830589649
 11
38.610196662877968
 21
275.79360430589651
  0
LINE
  8
_0-0_0
  6
CONTINUOUS
 62
    7
 10
38.73186766287796
 20
276.34181830589648
 11
38.853540662877975
 21
277.23266730589648
  0
LINE
  8
_0-0_0
  6
CONTINUOUS
 62
    7
 10
37.892091662877959
 20
280.45895930589649
 11
40.016763662877963
 21
280.45895930589649
  0
LINE
  8
_0-0_0
  6
CONTINUOUS
 62
    7
 10
41.449165662877959
 20
278.91157430589647
 11
42.746980662877974
 21
279.18568130589654
  0
LINE
  8
_0-0_0
  6
CONTINUOUS
 62
    7
 10
41.449165662877959
 20
283.40588130589651
 11
42.746980662877974
 21
283.1317743058965
  0
LINE
  8
_0-0_0
  6
CONTINUOUS
 62
    7
 10
71.222892662877967
 20
263.87452930589649
 11
66.77435966287797
 21
255.20407330589649
  0
LINE
  8
_0-0_0
  6
CONTINUOUS
 62
    7
 10
51.901652662877979
 20
263.29261930589649
 11
48.050684662877956
 21
259.62658630589647
  0
LINE
  8
_0-0_0
  6
CONTINUOUS
 62
    7
 10
50.640129662877968
 20
264.10729330589652
 11
46.789158662877981
 21
262.01241830589652
  0
LINE
  8
_0-0_0
  6
CONTINUOUS
 62
    7
 10
76.335385662877968
 20
268.35523430589649
 11
75.671425662877965
 21
259.62658630589647
  0
LINE
  8
_0-0_0
  6
CONTINUOUS
 62
    7
 10
75.760118662877971
 20
272.0588933058965
 11
68.784369662877964
 21
244.8537543058965
  0
LINE
  8
_0-0_0
  6
CONTINUOUS
 62
    7
 10
44.693703662877965
 20
262.08824430589652
 11
44.81536966287797
 21
262.60219330589649
  0
LINE
  8
_0-0_0
  6
CONTINUOUS
 62
    7
 10
68.906038662877961
 20
273.97764530589649
 11
49.236049662877974
 21
258.18221430589648
  0
LINE
  8
_0-0_0
  6
CONTINUOUS
 62
    7
 10
53.372829662877962
 20
250.26737230589649
 11
70.609421662877963
 21
271.13378130589649
  0
LINE
  8
_0-0_0
  6
CONTINUOUS
 62
    7
 10
71.907234662877983
 20
271.54494230589648
 11
58.158517662877983
 21
247.42351030589649
  0
LINE
  8
_0-0_0
  6
CONTINUOUS
 62
    7
 10
62.724202662877957
 20
253.92386930589649
 11
60.599529662877984
 21
247.11552530589648
  0
LINE
  8
_0-0_0
  6
CONTINUOUS
 62
    7
 10
61.861054662877962
 20
255.6114113058965
 11
59.138818662877981
 21
251.59622930589649
  0
LINE
  8
_0-0_0
  6
CONTINUOUS
 62
    7
 10
61.119157662877967
 20
245.60754430589651
 11
60.22691066287797
 21
245.09359530589649
  0
LINE
  8
_0-0_0
  6
CONTINUOUS
 62
    7
 10
59.338005662877976
 20
253.69110730589648
 11
55.487035662877958
 21
249.67593030589649
  0
LINE
  8
_0-0_0
  6
CONTINUOUS
 62
    7
 10
58.939629662877962
 20
258.34638430589649
 11
52.100838662877976
 21
250.49060130589649
  0
LINE
  8
_0-0_0
  6
CONTINUOUS
 62
    7
 10
48.830484662877979
 20
251.43232430589649
 11
49.88495766287798
 21
252.87138930589651
  0
LINE
  8
_0-0_0
  6
CONTINUOUS
 62
    7
 10
54.265080662877978
 20
243.92864030589649
 11
51.66945366287797
 21
244.5796433058965
  0
LINE
  8
_0-0_0
  6
CONTINUOUS
 62
    7
 10
48.587142662877966
 20
245.88165530589649
 11
47.776011662877977
 21
246.9095583058965
  0
LINE
  8
_0-0_0
  6
CONTINUOUS
 62
    7
 10
47.776011662877977
 20
247.5605613058965
 11
48.059904662877983
 21
248.72551930589651
  0
LINE
  8
_0-0_0
  6
CONTINUOUS
 62
    7
 10
45.869845662877964
 20
250.54147430589649
 11
45.342609662877976
 21
250.54147430589649
  0
LINE
  8
_0-0_0
  6
CONTINUOUS
 62
    7
 10
48.181575662877975
 20
251.1924833058965
 11
47.127099662877981
 21
250.81558530589649
  0
LINE
  8
_0-0_0
  6
CONTINUOUS
 62
    7
 10
48.059904662877983
 20
249.6506303058965
 11
48.059904662877983
 21
250.1645793058965
  0
LINE
  8
_0-0_0
  6
CONTINUOUS
 62
    7
 10
50.777202662877954
 20
247.18366430589649
 11
52.44002466287796
 21
250.1645793058965
  0
LINE
  8
_0-0_0
  6
CONTINUOUS
 62
    7
 10
57.631283662877962
 20
247.18366430589649
 11
56.617367662877967
 21
246.53265830589649
  0
LINE
  8
_0-0_0
  6
CONTINUOUS
 62
    7
 10
58.280188662877976
 20
244.5796433058965
 11
54.913987662877958
 21
243.92864030589649
  0
LINE
  8
_0-0_0
  6
CONTINUOUS
 62
    7
 10
54.913987662877958
 20
246.6697093058965
 11
54.021735662877973
 21
246.77250430589649
  0
LINE
  8
_0-0_0
  6
CONTINUOUS
 62
    7
 10
55.684561662877968
 20
246.3956073058965
 11
55.441221662877979
 21
246.3956073058965
  0
LINE
  8
_0-0_0
  6
CONTINUOUS
 62
    7
 10
57.412521662877964
 20
249.67593030589649
 11
56.150996662877958
 21
248.16296430589648
  0
LINE
  8
_0-0_0
  6
CONTINUOUS
 62
    7
 10
52.845594662877971
 20
248.72551930589651
 11
52.845594662877971
 21
249.89047130589648
  0
LINE
  8
_0-0_0
  6
CONTINUOUS
 62
    7
 10
53.616174662877967
 20
247.42351030589649
 11
53.251164662877983
 21
248.2115643058965
  0
LINE
  8
_0-0_0
  6
CONTINUOUS
 62
    7
 10
55.487035662877958
 20
257.53171030589647
 11
51.702464662877958
 21
253.92386930589649
  0
LINE
  8
_0-0_0
  6
CONTINUOUS
 62
    7
 10
54.424702662877962
 20
259.21924930589648
 11
50.839314662877968
 21
256.25150930589649
  0
LINE
  8
_0-0_0
  6
CONTINUOUS
 62
    7
 10
46.883760662877961
 20
254.31045530589648
 11
45.464280662877968
 21
255.71525130589649
  0
LINE
  8
_0-0_0
  6
CONTINUOUS
 62
    7
 10
47.410998662877972
 20
256.88020530589648
 11
45.58595166287796
 21
257.01725930589646
  0
LINE
  8
_0-0_0
  6
CONTINUOUS
 62
    7
 10
48.708813662877958
 20
258.0451603058965
 11
48.059904662877983
 21
258.0451603058965
  0
LINE
  8
_0-0_0
  6
CONTINUOUS
 62
    7
 10
44.937042662877985
 20
259.62128030589651
 11
44.81536966287797
 21
260.13522930589647
  0
LINE
  8
_0-0_0
  6
CONTINUOUS
 62
    7
 10
46.640424662877962
 20
258.0451603058965
 11
46.356522662877978
 21
258.0451603058965
  0
LINE
  8
_0-0_0
  6
CONTINUOUS
 62
    7
 10
45.58595166287796
 20
258.55911130589652
 11
45.342609662877976
 21
258.83322030589648
  0
LINE
  8
_0-0_0
  6
CONTINUOUS
 62
    7
 10
44.693703662877965
 20
260.64918130589649
 11
44.693703662877965
 21
261.30018530589649
  0
LINE
  8
_0-0_0
  6
CONTINUOUS
 62
    7
 10
68.035883662877978
 20
253.69110730589648
 11
66.110399662877967
 21
248.16296430589648
  0
LINE
  8
_0-0_0
  6
CONTINUOUS
 62
    7
 10
65.313647662877969
 20
254.3312073058965
 11
62.325826662877972
 21
249.44316530589651
  0
LINE
  8
_0-0_0
  6
CONTINUOUS
 62
    7
 10
68.235071662877971
 20
250.0832663058965
 11
66.77435966287797
 21
244.96245930589649
  0
LINE
  8
_0-0_0
  6
CONTINUOUS
 62
    7
 10
63.349773662877965
 20
245.88165530589649
 11
62.416970662877958
 21
245.74459830589649
  0
LINE
  8
_0-0_0
  6
CONTINUOUS
 62
    7
 10
65.174826662877962
 20
244.8537543058965
 11
64.525917662877958
 21
245.60754430589651
  0
LINE
  8
_0-0_0
  6
CONTINUOUS
 62
    7
 10
68.784369662877964
 20
244.7167003058965
 11
68.541029662877975
 21
243.55174230589648
  0
LINE
  8
_0-0_0
  6
CONTINUOUS
 62
    7
 10
68.541029662877975
 20
242.7636853058965
 11
68.784369662877964
 21
241.87283030589649
  0
LINE
  8
_0-0_0
  6
CONTINUOUS
 62
    7
 10
64.649687662877966
 20
251.36346730589651
 11
63.188974662877968
 21
248.8030653058965
  0
LINE
  8
_0-0_0
  6
CONTINUOUS
 62
    7
 10
74.989541662877969
 20
245.60754430589651
 11
74.746201662877979
 21
247.42351030589649
  0
LINE
  8
_0-0_0
  6
CONTINUOUS
 62
    7
 10
74.867871662877974
 20
243.14058030589649
 11
74.989541662877969
 21
244.5796433058965
  0
LINE
  8
_0-0_0
  6
CONTINUOUS
 62
    7
 10
74.097294662877971
 20
241.59872530589649
 11
74.624532662877982
 21
242.2497363058965
  0
LINE
  8
_0-0_0
  6
CONTINUOUS
 62
    7
 10
68.500656662877958
 20
257.93904730589651
 11
67.172735662877955
 21
252.2363323058965
  0
LINE
  8
_0-0_0
  6
CONTINUOUS
 62
    7
 10
61.661866662877969
 20
274.93081530589649
 11
57.611709662877985
 21
273.65061430589651
  0
LINE
  8
_0-0_0
  6
CONTINUOUS
 62
    7
 10
53.494500662877982
 20
279.0486273058965
 11
64.890928662877968
 21
279.0486273058965
  0
LINE
  8
_0-0_0
  6
CONTINUOUS
 62
    7
 10
47.289330662877973
 20
264.79505130589649
 11
65.539835662877977
 21
271.92184030589647
  0
LINE
  8
_0-0_0
  6
CONTINUOUS
 62
    7
 10
53.494500662877982
 20
283.26882830589648
 11
64.890928662877968
 21
283.26882830589648
  0
LINE
  8
_0-0_0
  6
CONTINUOUS
 62
    7
 10
60.599529662877984
 20
272.60317630589645
 11
49.776980662877975
 21
268.9953353058965
  0
LINE
  8
_0-0_0
  6
CONTINUOUS
 62
    7
 10
44.863671662877977
 20
267.30779730589649
 11
50.839314662877968
 21
268.9953353058965
  0
LINE
  8
_0-0_0
  6
CONTINUOUS
 62
    7
 10
45.342609662877976
 20
263.25319830589649
 11
46.640424662877962
 21
264.52094630589647
  0
LINE
  8
_0-0_0
  6
CONTINUOUS
 62
    7
 10
51.237691662877978
 20
282.20468830589652
 11
58.47485766287798
 21
280.28438630589653
  0
LINE
  8
_0-0_0
  6
CONTINUOUS
 62
    7
 10
46.390784662877962
 20
280.69172330589652
 11
54.02632566287798
 21
280.69172330589652
  0
LINE
  8
_0-0_0
  6
CONTINUOUS
 62
    7
 10
77.198534662877961
 20
268.35523430589649
 11
77.596910662877974
 21
263.69995630589654
  0
LINE
  8
_0-0_0
  6
CONTINUOUS
 62
    7
 10
41.079101662877974
 20
284.5323283058965
 11
47.851493662877971
 21
284.29956430589652
  0
LINE
  8
_0-0_0
  6
CONTINUOUS
 62
    7
 10
41.676663662877985
 20
285.98710230589649
 11
48.515456662877966
 21
285.5797653058965
  0
LINE
  8
_0-0_0
  6
CONTINUOUS
 62
    7
 10
43.402962662877968
 20
288.14016830589651
 11
48.050684662877956
 21
287.26730430589646
  0
LINE
  8
_0-0_0
  6
CONTINUOUS
 62
    7
 10
41.875855662877967
 20
292.38811130589647
 11
48.316265662877953
 21
291.1079093058965
  0
LINE
  8
_0-0_0
  6
CONTINUOUS
 62
    7
 10
44.266111662877961
 20
294.71574930589645
 11
49.776980662877975
 21
293.26097530589652
  0
LINE
  8
_0-0_0
  6
CONTINUOUS
 62
    7
 10
66.188743662877954
 20
283.91983230589653
 11
42.625309662877982
 21
290.1215093058965
  0
LINE
  8
_0-0_0
  6
CONTINUOUS
 62
    7
 10
41.32749766287796
 20
306.19104530589652
 11
41.449165662877959
 21
302.8332323058965
  0
LINE
  8
_0-0_0
  6
CONTINUOUS
 62
    7
 10
42.46308666287797
 20
295.32954530589649
 11
41.692506662877975
 21
293.89048230589651
  0
LINE
  8
_0-0_0
  6
CONTINUOUS
 62
    7
 10
38.610196662877968
 20
291.4235173058965
 11
36.01456966287796
 21
288.20275730589651
  0
LINE
  8
_0-0_0
  6
CONTINUOUS
 62
    7
 10
40.39469166287796
 20
289.5047683058965
 11
39.502446662877986
 21
288.33981130589649
  0
LINE
  8
_0-0_0
  6
CONTINUOUS
 62
    7
 10
39.259108662877964
 20
284.70789130589651
 11
40.273023662877961
 21
283.91983230589653
  0
LINE
  8
_0-0_0
  6
CONTINUOUS
 62
    7
 10
38.73186766287796
 20
285.9756373058965
 11
38.853540662877975
 21
285.08478930589649
  0
LINE
  8
_0-0_0
  6
CONTINUOUS
 62
    7
 10
38.975211662877967
 20
287.68880730589649
 11
38.610196662877968
 21
286.52385130589653
  0
LINE
  8
_0-0_0
  6
CONTINUOUS
 62
    7
 10
40.39469166287796
 20
293.37653330589649
 11
37.677396662877953
 21
292.21157630589653
  0
LINE
  8
_0-0_0
  6
CONTINUOUS
 62
    7
 10
41.814174662877974
 20
290.01871830589653
 11
40.678591662877977
 21
289.60755730589653
  0
LINE
  8
_0-0_0
  6
CONTINUOUS
 62
    7
 10
42.868648662877973
 20
298.68735830589651
 11
43.11198966287796
 21
297.24829530589648
  0
LINE
  8
_0-0_0
  6
CONTINUOUS
 62
    7
 10
41.692506662877975
 20
301.15432330589647
 11
42.341412662877957
 21
299.98936830589651
  0
LINE
  8
_0-0_0
  6
CONTINUOUS
 62
    7
 10
41.814174662877974
 20
309.44606630589647
 11
41.32749766287796
 21
307.76716230589648
  0
LINE
  8
_0-0_0
  6
CONTINUOUS
 62
    7
 10
43.92312766287796
 20
311.50187130589649
 11
43.11198966287796
 21
311.1249733058965
  0
LINE
  8
_0-0_0
  6
CONTINUOUS
 62
    7
 10
69.297407662877959
 20
304.7246003058965
 11
70.625327662877964
 21
302.39695830589653
  0
LINE
  8
_0-0_0
  6
CONTINUOUS
 62
    7
 10
64.848875662877958
 20
307.92510230589653
 11
67.836695662877958
 21
302.57153230589648
  0
LINE
  8
_0-0_0
  6
CONTINUOUS
 62
    7
 10
75.638448662877977
 20
313.72899330589649
 11
75.922345662877973
 21
291.69762530589651
  0
LINE
  8
_0-0_0
  6
CONTINUOUS
 62
    7
 10
75.760118662877971
 20
290.25856230589648
 11
68.784369662877964
 21
317.46370130589651
  0
LINE
  8
_0-0_0
  6
CONTINUOUS
 62
    7
 10
53.372829662877962
 20
312.05008430589646
 11
70.609421662877963
 21
291.18367430589649
  0
LINE
  8
_0-0_0
  6
CONTINUOUS
 62
    7
 10
71.907234662877983
 20
290.7725133058965
 11
58.158517662877983
 21
314.89394530589652
  0
LINE
  8
_0-0_0
  6
CONTINUOUS
 62
    7
 10
47.289330662877973
 20
297.52240430589649
 11
65.539835662877977
 21
290.39561530589651
  0
LINE
  8
_0-0_0
  6
CONTINUOUS
 62
    7
 10
68.906038662877961
 20
288.33981130589649
 11
49.236049662877974
 21
304.1352413058965
  0
LINE
  8
_0-0_0
  6
CONTINUOUS
 62
    7
 10
45.726820662877969
 20
293.43554830589653
 11
51.702464662877958
 21
291.74800930589652
  0
LINE
  8
_0-0_0
  6
CONTINUOUS
 62
    7
 10
47.453118662877984
 20
295.99595230589648
 11
52.963987662877969
 21
294.94851330589648
  0
LINE
  8
_0-0_0
  6
CONTINUOUS
 62
    7
 10
45.342609662877976
 20
299.06425730589649
 11
46.640424662877962
 21
297.7965103058965
  0
LINE
  8
_0-0_0
  6
CONTINUOUS
 62
    7
 10
48.708813662877958
 20
304.27229530589648
 11
48.059904662877983
 21
304.27229530589648
  0
LINE
  8
_0-0_0
  6
CONTINUOUS
 62
    7
 10
44.693703662877965
 20
300.22921230589645
 11
44.81536966287797
 21
299.71526330589649
  0
LINE
  8
_0-0_0
  6
CONTINUOUS
 62
    7
 10
44.693703662877965
 20
301.66827530589649
 11
44.693703662877965
 21
301.01727030589649
  0
LINE
  8
_0-0_0
  6
CONTINUOUS
 62
    7
 10
46.640424662877962
 20
304.27229530589648
 11
46.356522662877978
 21
304.27229530589648
  0
LINE
  8
_0-0_0
  6
CONTINUOUS
 62
    7
 10
44.937042662877985
 20
302.69617530589653
 11
44.81536966287797
 21
302.18222630589651
  0
LINE
  8
_0-0_0
  6
CONTINUOUS
 62
    7
 10
45.58595166287796
 20
303.75834530589646
 11
45.342609662877976
 21
303.4842353058965
  0
LINE
  8
_0-0_0
  6
CONTINUOUS
 62
    7
 10
55.752620662877973
 20
302.39695830589653
 11
59.138818662877981
 21
298.32359030589646
  0
LINE
  8
_0-0_0
  6
CONTINUOUS
 62
    7
 10
58.275668662877962
 20
303.44439730589647
 11
61.064302662877964
 21
298.55635530589649
  0
LINE
  8
_0-0_0
  6
CONTINUOUS
 62
    7
 10
56.150996662877958
 20
303.2116323058965
 11
59.138818662877981
 21
300.24389330589651
  0
LINE
  8
_0-0_0
  6
CONTINUOUS
 62
    7
 10
62.923390662877978
 20
296.6360523058965
 11
65.911211662877975
 21
294.94851330589648
  0
LINE
  8
_0-0_0
  6
CONTINUOUS
 62
    7
 10
60.201154662877968
 20
314.50068430589647
 11
62.724202662877957
 21
311.30017930589651
  0
LINE
  8
_0-0_0
  6
CONTINUOUS
 62
    7
 10
61.119157662877967
 20
316.70991130589653
 11
60.22691066287797
 21
317.22386030589649
  0
LINE
  8
_0-0_0
  6
CONTINUOUS
 62
    7
 10
50.777202662877954
 20
315.13379230589646
 11
52.44002466287796
 21
312.15287630589648
  0
LINE
  8
_0-0_0
  6
CONTINUOUS
 62
    7
 10
49.776980662877975
 20
309.14711530589648
 11
52.963987662877969
 21
306.00480130589654
  0
LINE
  8
_0-0_0
  6
CONTINUOUS
 62
    7
 10
51.038503662877957
 20
310.66008130589648
 11
53.827136662877962
 21
308.33244130589651
  0
LINE
  8
_0-0_0
  6
CONTINUOUS
 62
    7
 10
48.830484662877979
 20
310.88513230589649
 11
49.88495766287798
 21
309.44606630589647
  0
LINE
  8
_0-0_0
  6
CONTINUOUS
 62
    7
 10
48.316265662877953
 20
308.09967630589654
 11
52.300029662877961
 21
305.53927130589648
  0
LINE
  8
_0-0_0
  6
CONTINUOUS
 62
    7
 10
46.883760662877961
 20
308.00700130589649
 11
45.464280662877968
 21
306.60220530589652
  0
LINE
  8
_0-0_0
  6
CONTINUOUS
 62
    7
 10
47.410998662877972
 20
305.4372503058965
 11
45.58595166287796
 21
305.30019630589652
  0
LINE
  8
_0-0_0
  6
CONTINUOUS
 62
    7
 10
48.059904662877983
 20
312.66682530589651
 11
48.059904662877983
 21
312.15287630589648
  0
LINE
  8
_0-0_0
  6
CONTINUOUS
 62
    7
 10
45.869845662877964
 20
311.77598130589649
 11
45.342609662877976
 21
311.77598130589649
  0
LINE
  8
_0-0_0
  6
CONTINUOUS
 62
    7
 10
48.181575662877975
 20
311.1249733058965
 11
47.127099662877981
 21
311.50187130589649
  0
LINE
  8
_0-0_0
  6
CONTINUOUS
 62
    7
 10
47.776011662877977
 20
314.75689430589648
 11
48.059904662877983
 21
313.59193630589652
  0
LINE
  8
_0-0_0
  6
CONTINUOUS
 62
    7
 10
56.150996662877958
 20
314.26792230589649
 11
58.275668662877962
 21
312.17304730589649
  0
LINE
  8
_0-0_0
  6
CONTINUOUS
 62
    7
 10
54.69028366287796
 20
312.81314430589646
 11
56.350184662877979
 21
309.7872133058965
  0
LINE
  8
_0-0_0
  6
CONTINUOUS
 62
    7
 10
52.845594662877971
 20
313.59193630589652
 11
52.845594662877971
 21
312.4269843058965
  0
LINE
  8
_0-0_0
  6
CONTINUOUS
 62
    7
 10
53.616174662877967
 20
314.89394530589652
 11
53.251164662877983
 21
314.10589130589653
  0
LINE
  8
_0-0_0
  6
CONTINUOUS
 62
    7
 10
54.265080662877978
 20
318.38881530589651
 11
51.66945366287797
 21
317.73781230589645
  0
LINE
  8
_0-0_0
  6
CONTINUOUS
 62
    7
 10
48.587142662877966
 20
316.43580130589646
 11
47.776011662877977
 21
315.40789730589654
  0
LINE
  8
_0-0_0
  6
CONTINUOUS
 62
    7
 10
58.280188662877976
 20
317.73781230589645
 11
54.913987662877958
 21
318.38881530589651
  0
LINE
  8
_0-0_0
  6
CONTINUOUS
 62
    7
 10
57.631283662877962
 20
315.13379230589646
 11
56.617367662877967
 21
315.78479830589652
  0
LINE
  8
_0-0_0
  6
CONTINUOUS
 62
    7
 10
54.913987662877958
 20
315.64774630589648
 11
54.021735662877973
 21
315.54495130589646
  0
LINE
  8
_0-0_0
  6
CONTINUOUS
 62
    7
 10
55.684561662877968
 20
315.9218493058965
 11
55.441221662877979
 21
315.9218493058965
  0
LINE
  8
_0-0_0
  6
CONTINUOUS
 62
    7
 10
65.911211662877975
 20
316.59555930589647
 11
66.77435966287797
 21
314.03515730589652
  0
LINE
  8
_0-0_0
  6
CONTINUOUS
 62
    7
 10
74.989541662877969
 20
316.70991130589653
 11
74.746201662877979
 21
314.89394530589652
  0
LINE
  8
_0-0_0
  6
CONTINUOUS
 62
    7
 10
67.637507662877965
 20
312.58038230589648
 11
69.098220662877964
 21
305.77203630589651
  0
LINE
  8
_0-0_0
  6
CONTINUOUS
 62
    7
 10
66.575172662877975
 20
310.42731630589651
 11
67.637507662877965
 21
307.28500230589646
  0
LINE
  8
_0-0_0
  6
CONTINUOUS
 62
    7
 10
63.388163662877957
 20
314.90802030589646
 11
65.048063662877979
 21
311.30017930589651
  0
LINE
  8
_0-0_0
  6
CONTINUOUS
 62
    7
 10
68.906038662877961
 20
320.85577930589648
 11
70.32552366287797
 21
321.60957230589645
  0
LINE
  8
_0-0_0
  6
CONTINUOUS
 62
    7
 10
68.541029662877975
 20
319.55377030589648
 11
68.784369662877964
 21
320.44462530589647
  0
LINE
  8
_0-0_0
  6
CONTINUOUS
 62
    7
 10
63.349773662877965
 20
316.43580130589646
 11
62.416970662877958
 21
316.57285730589649
  0
LINE
  8
_0-0_0
  6
CONTINUOUS
 62
    7
 10
65.174826662877962
 20
317.46370130589651
 11
64.525917662877958
 21
316.70991130589653
  0
LINE
  8
_0-0_0
  6
CONTINUOUS
 62
    7
 10
68.784369662877964
 20
317.60075530589648
 11
68.541029662877975
 21
318.7657133058965
  0
LINE
  8
_0-0_0
  6
CONTINUOUS
 62
    7
 10
74.097294662877971
 20
320.71873030589649
 11
74.624532662877982
 21
320.0677193058965
  0
LINE
  8
_0-0_0
  6
CONTINUOUS
 62
    7
 10
74.867871662877974
 20
319.17687530589649
 11
74.989541662877969
 21
317.73781230589645
  0
LINE
  8
_0-0_0
  6
CONTINUOUS
 62
    7
 10
72.393914662877961
 20
321.88368330589651
 11
73.691728662877978
 21
321.09562030589649
  0
LINE
  8
_0-0_0
  6
CONTINUOUS
 62
    7
 10
71.379997662877969
 20
321.74663130589647
 11
72.028904662877977
 21
321.88368330589651
  0
LINE
  8
_0-0_0
  6
CONTINUOUS
 62
    7
 10
75.181390662877959
 20
323.97706530589653
 11
76.700682662877966
 21
321.24954130589651
  0
LINE
  8
_0-0_0
  6
CONTINUOUS
 62
    7
 10
121.32991466287797
 20
284.5081933058965
 11
119.52575066287798
 21
282.42244030589649
  0
LINE
  8
_0-0_0
  6
CONTINUOUS
 62
    7
 10
89.42475966287796
 20
242.39201530589651
 11
87.050865662877982
 21
237.81940430589651
  0
LINE
  8
_0-0_0
  6
CONTINUOUS
 62
    7
 10
87.577214662877964
 20
241.4616763058965
 11
86.157730662877981
 21
240.7078843058965
  0
LINE
  8
_0-0_0
  6
CONTINUOUS
 62
    7
 10
80.309003662877956
 20
235.6534333058965
 11
84.297146662877964
 21
237.17763330589651
  0
LINE
  8
_0-0_0
  6
CONTINUOUS
 62
    7
 10
78.884666662877976
 20
239.34360730589651
 11
83.727412662877981
 21
237.81940430589651
  0
LINE
  8
_0-0_0
  6
CONTINUOUS
 62
    7
 10
84.089338662877964
 20
240.43377330589649
 11
82.791525662877973
 21
241.22183530589649
  0
LINE
  8
_0-0_0
  6
CONTINUOUS
 62
    7
 10
85.103256662877982
 20
240.57082430589651
 11
84.454349662877974
 21
240.43377330589649
  0
LINE
  8
_0-0_0
  6
CONTINUOUS
 62
    7
 10
95.501932662877977
 20
281.21912130589646
 11
121.61477466287798
 21
280.89823630589649
  0
LINE
  8
_0-0_0
  6
CONTINUOUS
 62
    7
 10
90.294510662877968
 20
278.3976233058965
 11
113.85794466287797
 21
272.19594730589648
  0
LINE
  8
_0-0_0
  6
CONTINUOUS
 62
    7
 10
82.510215662877982
 20
271.32297530589653
 11
84.435699662877965
 21
262.01241830589652
  0
LINE
  8
_0-0_0
  6
CONTINUOUS
 62
    7
 10
82.111839662877969
 20
270.68287430589646
 11
83.970927662877983
 21
261.77965330589649
  0
LINE
  8
_0-0_0
  6
CONTINUOUS
 62
    7
 10
80.844804662877976
 20
248.58846230589648
 11
80.56090766287798
 21
270.61983030589647
  0
LINE
  8
_0-0_0
  6
CONTINUOUS
 62
    7
 10
80.723134662877982
 20
272.0588933058965
 11
87.698883662877961
 21
244.8537543058965
  0
LINE
  8
_0-0_0
  6
CONTINUOUS
 62
    7
 10
87.577214662877964
 20
273.97764530589649
 11
107.24720466287798
 21
258.18221430589648
  0
LINE
  8
_0-0_0
  6
CONTINUOUS
 62
    7
 10
105.70605066287797
 20
255.85230530589649
 11
92.362902662877957
 21
269.2150313058965
  0
LINE
  8
_0-0_0
  6
CONTINUOUS
 62
    7
 10
103.11042366287796
 20
250.26737230589649
 11
85.873832662877959
 21
271.13378130589649
  0
LINE
  8
_0-0_0
  6
CONTINUOUS
 62
    7
 10
84.576019662877968
 20
271.54494230589648
 11
98.32473566287797
 21
247.42351030589649
  0
LINE
  8
_0-0_0
  6
CONTINUOUS
 62
    7
 10
81.493711662877956
 20
245.60754430589651
 11
81.737052662877971
 21
247.42351030589649
  0
LINE
  8
_0-0_0
  6
CONTINUOUS
 62
    7
 10
82.38595966287798
 20
241.59872530589649
 11
81.858721662877969
 21
242.2497363058965
  0
LINE
  8
_0-0_0
  6
CONTINUOUS
 62
    7
 10
81.615381662877979
 20
243.14058030589649
 11
81.493711662877956
 21
244.5796433058965
  0
LINE
  8
_0-0_0
  6
CONTINUOUS
 62
    7
 10
87.698883662877961
 20
244.7167003058965
 11
87.942224662877976
 21
243.55174230589648
  0
LINE
  8
_0-0_0
  6
CONTINUOUS
 62
    7
 10
87.942224662877976
 20
242.7636853058965
 11
87.698883662877961
 21
241.87283030589649
  0
LINE
  8
_0-0_0
  6
CONTINUOUS
 62
    7
 10
91.308427662877961
 20
244.8537543058965
 11
91.957336662877964
 21
245.60754430589651
  0
LINE
  8
_0-0_0
  6
CONTINUOUS
 62
    7
 10
93.133480662877957
 20
245.88165530589649
 11
94.066282662877967
 21
245.74459830589649
  0
LINE
  8
_0-0_0
  6
CONTINUOUS
 62
    7
 10
78.061682662877956
 20
259.8593513058965
 11
78.260870662877977
 21
253.45834230589651
  0
LINE
  8
_0-0_0
  6
CONTINUOUS
 62
    7
 10
107.65276966287797
 20
251.43232430589649
 11
106.59829566287797
 21
252.87138930589651
  0
LINE
  8
_0-0_0
  6
CONTINUOUS
 62
    7
 10
105.58437766287798
 20
251.0554263058965
 11
95.485767662877976
 21
261.67708230589653
  0
LINE
  8
_0-0_0
  6
CONTINUOUS
 62
    7
 10
102.21817366287797
 20
243.92864030589649
 11
104.81380066287798
 21
244.5796433058965
  0
LINE
  8
_0-0_0
  6
CONTINUOUS
 62
    7
 10
102.86707966287796
 20
247.42351030589649
 11
103.23208966287797
 21
248.2115643058965
  0
LINE
  8
_0-0_0
  6
CONTINUOUS
 62
    7
 10
98.851969662877963
 20
247.18366430589649
 11
99.865886662877955
 21
246.53265830589649
  0
LINE
  8
_0-0_0
  6
CONTINUOUS
 62
    7
 10
98.203064662877978
 20
244.5796433058965
 11
101.56926666287796
 21
243.92864030589649
  0
LINE
  8
_0-0_0
  6
CONTINUOUS
 62
    7
 10
95.364096662877984
 20
245.60754430589651
 11
96.256342662877984
 21
245.09359530589649
  0
LINE
  8
_0-0_0
  6
CONTINUOUS
 62
    7
 10
100.79869266287798
 20
246.3956073058965
 11
101.04203266287797
 21
246.3956073058965
  0
LINE
  8
_0-0_0
  6
CONTINUOUS
 62
    7
 10
101.56926666287796
 20
246.6697093058965
 11
102.46151766287798
 21
246.77250430589649
  0
LINE
  8
_0-0_0
  6
CONTINUOUS
 62
    7
 10
107.89611066287796
 20
245.88165530589649
 11
108.70724266287797
 21
246.9095583058965
  0
LINE
  8
_0-0_0
  6
CONTINUOUS
 62
    7
 10
105.70605066287797
 20
247.18366430589649
 11
104.04322966287796
 21
250.1645793058965
  0
LINE
  8
_0-0_0
  6
CONTINUOUS
 62
    7
 10
103.63765966287798
 20
248.72551930589651
 11
103.63765966287798
 21
249.89047130589648
  0
LINE
  8
_0-0_0
  6
CONTINUOUS
 62
    7
 10
108.70724266287797
 20
247.5605613058965
 11
108.42334866287797
 21
248.72551930589651
  0
LINE
  8
_0-0_0
  6
CONTINUOUS
 62
    7
 10
108.30167766287798
 20
251.1924833058965
 11
109.35615466287797
 21
250.81558530589649
  0
LINE
  8
_0-0_0
  6
CONTINUOUS
 62
    7
 10
108.42334866287797
 20
249.6506303058965
 11
108.42334866287797
 21
250.1645793058965
  0
LINE
  8
_0-0_0
  6
CONTINUOUS
 62
    7
 10
110.61340866287796
 20
250.54147430589649
 11
111.14064366287798
 21
250.54147430589649
  0
LINE
  8
_0-0_0
  6
CONTINUOUS
 62
    7
 10
109.59949266287796
 20
254.31045530589648
 11
111.01897266287799
 21
255.71525130589649
  0
LINE
  8
_0-0_0
  6
CONTINUOUS
 62
    7
 10
109.07225466287798
 20
256.88020530589648
 11
110.89730266287796
 21
257.01725930589646
  0
LINE
  8
_0-0_0
  6
CONTINUOUS
 62
    7
 10
107.77443966287797
 20
258.0451603058965
 11
108.42334866287797
 21
258.0451603058965
  0
LINE
  8
_0-0_0
  6
CONTINUOUS
 62
    7
 10
110.89730266287796
 20
258.55911130589652
 11
111.14064366287798
 21
258.83322030589648
  0
LINE
  8
_0-0_0
  6
CONTINUOUS
 62
    7
 10
109.84282866287796
 20
258.0451603058965
 11
110.12673066287797
 21
258.0451603058965
  0
LINE
  8
_0-0_0
  6
CONTINUOUS
 62
    7
 10
94.594290662877967
 20
272.4286033058965
 11
96.320586662877957
 21
271.55573830589651
  0
LINE
  8
_0-0_0
  6
CONTINUOUS
 62
    7
 10
91.872054662877957
 20
275.39634330589649
 11
96.718963662877968
 21
273.88337830589649
  0
LINE
  8
_0-0_0
  6
CONTINUOUS
 62
    7
 10
102.98875366287797
 20
279.0486273058965
 11
91.592325662877982
 21
279.0486273058965
  0
LINE
  8
_0-0_0
  6
CONTINUOUS
 62
    7
 10
109.19392266287798
 20
264.79505130589649
 11
90.943417662877977
 21
271.92184030589647
  0
LINE
  8
_0-0_0
  6
CONTINUOUS
 62
    7
 10
102.98875366287797
 20
283.26882830589648
 11
91.592325662877982
 21
283.26882830589648
  0
LINE
  8
_0-0_0
  6
CONTINUOUS
 62
    7
 10
86.095600662877956
 20
273.88337830589649
 11
89.548193662877964
 21
270.27553730589648
  0
LINE
  8
_0-0_0
  6
CONTINUOUS
 62
    7
 10
84.236511662877973
 20
268.35523430589649
 11
86.759560662877959
 21
264.10729330589652
  0
LINE
  8
_0-0_0
  6
CONTINUOUS
 62
    7
 10
85.298848662877958
 20
272.60317630589645
 11
87.423520662877962
 21
270.0427733058965
  0
LINE
  8
_0-0_0
  6
CONTINUOUS
 62
    7
 10
88.884232662877963
 20
275.39634330589649
 11
92.071241662877981
 21
273.88337830589649
  0
LINE
  8
_0-0_0
  6
CONTINUOUS
 62
    7
 10
89.747381662877956
 20
277.49121930589649
 11
93.797538662877969
 21
276.21101730589646
  0
LINE
  8
_0-0_0
  6
CONTINUOUS
 62
    7
 10
111.14064366287798
 20
263.25319830589649
 11
109.84282866287796
 21
264.52094630589647
  0
LINE
  8
_0-0_0
  6
CONTINUOUS
 62
    7
 10
97.781299662877956
 20
274.11614230589646
 11
100.37074366287797
 21
273.06870430589652
  0
LINE
  8
_0-0_0
  6
CONTINUOUS
 62
    7
 10
109.59949266287796
 20
279.28847130589651
 11
104.93547166287797
 21
279.28847130589651
  0
LINE
  8
_0-0_0
  6
CONTINUOUS
 62
    7
 10
109.59949266287796
 20
283.02898430589653
 11
104.93547166287797
 21
283.02898430589653
  0
LINE
  8
_0-0_0
  6
CONTINUOUS
 62
    7
 10
111.78954966287796
 20
262.08824430589652
 11
111.66788466287798
 21
262.60219330589649
  0
LINE
  8
_0-0_0
  6
CONTINUOUS
 62
    7
 10
112.56012666287796
 20
250.81558530589649
 11
113.37126466287796
 21
251.1924833058965
  0
LINE
  8
_0-0_0
  6
CONTINUOUS
 62
    7
 10
115.15575666287796
 20
256.12641030589651
 11
115.03408866287796
 21
259.48422330589653
  0
LINE
  8
_0-0_0
  6
CONTINUOUS
 62
    7
 10
114.66907866287798
 20
252.87138930589651
 11
115.15575666287796
 21
254.5502933058965
  0
LINE
  8
_0-0_0
  6
CONTINUOUS
 62
    7
 10
111.54621166287797
 20
259.62128030589651
 11
111.66788466287798
 21
260.13522930589647
  0
LINE
  8
_0-0_0
  6
CONTINUOUS
 62
    7
 10
111.78954966287796
 20
260.64918130589649
 11
111.78954966287796
 21
261.30018530589649
  0
LINE
  8
_0-0_0
  6
CONTINUOUS
 62
    7
 10
114.79074666287798
 20
261.16313330589651
 11
114.14184066287797
 21
262.32808730589647
  0
LINE
  8
_0-0_0
  6
CONTINUOUS
 62
    7
 10
117.87305666287799
 20
270.89393830589648
 11
120.46868466287796
 21
274.11469830589647
  0
LINE
  8
_0-0_0
  6
CONTINUOUS
 62
    7
 10
116.08856166287796
 20
272.81268830589647
 11
116.98080666287797
 21
273.97764530589649
  0
LINE
  8
_0-0_0
  6
CONTINUOUS
 62
    7
 10
114.02016766287798
 20
266.98791130589649
 11
114.79074666287798
 21
268.42697430589647
  0
LINE
  8
_0-0_0
  6
CONTINUOUS
 62
    7
 10
113.61460566287798
 20
263.63009830589647
 11
113.37126466287796
 21
265.0691603058965
  0
LINE
  8
_0-0_0
  6
CONTINUOUS
 62
    7
 10
114.66907866287798
 20
272.29873730589645
 11
115.80466266287797
 21
272.7098993058965
  0
LINE
  8
_0-0_0
  6
CONTINUOUS
 62
    7
 10
116.08856166287796
 20
268.94092330589649
 11
118.80585666287797
 21
270.10587930589651
  0
LINE
  8
_0-0_0
  6
CONTINUOUS
 62
    7
 10
117.22414566287796
 20
277.60956430589647
 11
116.21022966287796
 21
278.3976233058965
  0
LINE
  8
_0-0_0
  6
CONTINUOUS
 62
    7
 10
117.50804166287796
 20
274.62864830589649
 11
117.87305666287799
 21
275.79360430589651
  0
LINE
  8
_0-0_0
  6
CONTINUOUS
 62
    7
 10
117.75138666287796
 20
276.34181830589648
 11
117.62971266287798
 21
277.23266730589648
  0
LINE
  8
_0-0_0
  6
CONTINUOUS
 62
    7
 10
115.03408866287796
 20
278.91157430589647
 11
113.73627366287798
 21
279.18568130589654
  0
LINE
  8
_0-0_0
  6
CONTINUOUS
 62
    7
 10
115.03408866287796
 20
283.40588130589651
 11
113.73627366287798
 21
283.1317743058965
  0
LINE
  8
_0-0_0
  6
CONTINUOUS
 62
    7
 10
119.81061866287797
 20
279.93558030589651
 11
121.32991466287797
 21
277.20805630589649
  0
LINE
  8
_0-0_0
  6
CONTINUOUS
 62
    7
 10
123.13407366287797
 20
278.73226130589649
 11
123.41893566287797
 21
281.4597853058965
  0
LINE
  8
_0-0_0
  6
CONTINUOUS
 62
    7
 10
80.309003662877956
 20
326.06282030589648
 11
83.062721662877976
 21
325.50127030589647
  0
ARC
  8
_0-0_0
  6
CONTINUOUS
 62
    7
 10
78.241626662877962
 20
314.5391503058965
 40
14.063708
 50
18.722476
 51
90.000003000000007
  0
LINE
  8
_0-0_0
  6
CONTINUOUS
 62
    7
 10
90.294510662877968
 20
283.91983230589653
 11
113.85794466287797
 21
290.1215093058965
  0
LINE
  8
_0-0_0
  6
CONTINUOUS
 62
    7
 10
80.844804662877976
 20
313.72899330589649
 11
80.56090766287798
 21
291.69762530589651
  0
LINE
  8
_0-0_0
  6
CONTINUOUS
 62
    7
 10
80.723134662877982
 20
290.25856230589648
 11
87.698883662877961
 21
317.46370130589651
  0
LINE
  8
_0-0_0
  6
CONTINUOUS
 62
    7
 10
105.70605066287797
 20
306.46515130589648
 11
92.362902662877957
 21
293.10242530589653
  0
LINE
  8
_0-0_0
  6
CONTINUOUS
 62
    7
 10
105.58437766287798
 20
311.26203030589647
 11
95.485767662877976
 21
300.6403743058965
  0
LINE
  8
_0-0_0
  6
CONTINUOUS
 62
    7
 10
103.11042366287796
 20
312.05008430589646
 11
85.873832662877959
 21
291.18367430589649
  0
LINE
  8
_0-0_0
  6
CONTINUOUS
 62
    7
 10
84.576019662877968
 20
290.7725133058965
 11
98.32473566287797
 21
314.89394530589652
  0
LINE
  8
_0-0_0
  6
CONTINUOUS
 62
    7
 10
98.246072662877964
 20
291.34067230589653
 11
92.469617662877965
 21
290.70057230589646
  0
LINE
  8
_0-0_0
  6
CONTINUOUS
 62
    7
 10
93.332766662877958
 20
287.50006830589649
 11
97.183735662877979
 21
288.14016830589651
  0
LINE
  8
_0-0_0
  6
CONTINUOUS
 62
    7
 10
109.19392266287798
 20
297.52240430589649
 11
90.943417662877977
 21
290.39561530589651
  0
LINE
  8
_0-0_0
  6
CONTINUOUS
 62
    7
 10
87.577214662877964
 20
288.33981130589649
 11
107.24720466287798
 21
304.1352413058965
  0
LINE
  8
_0-0_0
  6
CONTINUOUS
 62
    7
 10
89.083420662877955
 20
291.51524530589649
 11
86.095600662877956
 21
290.0604713058965
  0
LINE
  8
_0-0_0
  6
CONTINUOUS
 62
    7
 10
92.270429662877973
 20
289.42037130589654
 11
88.021084662877968
 21
287.90740530589653
  0
LINE
  8
_0-0_0
  6
CONTINUOUS
 62
    7
 10
90.344944662877964
 20
284.5323283058965
 11
94.195914662877982
 21
285.5797653058965
  0
LINE
  8
_0-0_0
  6
CONTINUOUS
 62
    7
 10
89.548193662877964
 20
286.6272033058965
 11
92.469617662877965
 21
287.26730430589646
  0
LINE
  8
_0-0_0
  6
CONTINUOUS
 62
    7
 10
87.622708662877955
 20
304.49183530589653
 11
85.896412662877964
 21
298.7309273058965
  0
LINE
  8
_0-0_0
  6
CONTINUOUS
 62
    7
 10
87.423520662877962
 20
300.47665830589654
 11
85.697224662877971
 21
297.04338930589654
  0
LINE
  8
_0-0_0
  6
CONTINUOUS
 62
    7
 10
79.522394662877957
 20
299.60379330589649
 11
78.92483066287798
 21
294.07564930589649
  0
LINE
  8
_0-0_0
  6
CONTINUOUS
 62
    7
 10
84.236511662877973
 20
295.76318730589651
 11
83.771739662877962
 21
294.07564930589649
  0
LINE
  8
_0-0_0
  6
CONTINUOUS
 62
    7
 10
103.95612966287797
 20
289.59494430589649
 11
100.17155466287798
 21
288.37293230589648
  0
LINE
  8
_0-0_0
  6
CONTINUOUS
 62
    7
 10
111.14064366287798
 20
299.06425730589649
 11
109.84282866287796
 21
297.7965103058965
  0
LINE
  8
_0-0_0
  6
CONTINUOUS
 62
    7
 10
107.77443966287797
 20
304.27229530589648
 11
108.42334866287797
 21
304.27229530589648
  0
LINE
  8
_0-0_0
  6
CONTINUOUS
 62
    7
 10
110.89730266287796
 20
303.75834530589646
 11
111.14064366287798
 21
303.4842353058965
  0
LINE
  8
_0-0_0
  6
CONTINUOUS
 62
    7
 10
109.84282866287796
 20
304.27229530589648
 11
110.12673066287797
 21
304.27229530589648
  0
LINE
  8
_0-0_0
  6
CONTINUOUS
 62
    7
 10
81.493711662877956
 20
316.70991130589653
 11
81.737052662877971
 21
314.89394530589652
  0
LINE
  8
_0-0_0
  6
CONTINUOUS
 62
    7
 10
87.577214662877964
 20
320.85577930589648
 11
86.157730662877981
 21
321.60957230589645
  0
LINE
  8
_0-0_0
  6
CONTINUOUS
 62
    7
 10
82.38595966287798
 20
320.71873030589649
 11
81.858721662877969
 21
320.0677193058965
  0
LINE
  8
_0-0_0
  6
CONTINUOUS
 62
    7
 10
81.615381662877979
 20
319.17687530589649
 11
81.493711662877956
 21
317.73781230589645
  0
LINE
  8
_0-0_0
  6
CONTINUOUS
 62
    7
 10
80.973693662877963
 20
321.81109430589652
 11
82.777854662877957
 21
323.33529630589646
  0
LINE
  8
_0-0_0
  6
CONTINUOUS
 62
    7
 10
84.089338662877964
 20
321.88368330589651
 11
82.791525662877973
 21
321.09562030589649
  0
LINE
  8
_0-0_0
  6
CONTINUOUS
 62
    7
 10
85.103256662877982
 20
321.74663130589647
 11
84.454349662877974
 21
321.88368330589651
  0
LINE
  8
_0-0_0
  6
CONTINUOUS
 62
    7
 10
87.942224662877976
 20
319.55377030589648
 11
87.698883662877961
 21
320.44462530589647
  0
LINE
  8
_0-0_0
  6
CONTINUOUS
 62
    7
 10
87.698883662877961
 20
317.60075530589648
 11
87.942224662877976
 21
318.7657133058965
  0
LINE
  8
_0-0_0
  6
CONTINUOUS
 62
    7
 10
91.308427662877961
 20
317.46370130589651
 11
91.957336662877964
 21
316.70991130589653
  0
LINE
  8
_0-0_0
  6
CONTINUOUS
 62
    7
 10
93.133480662877957
 20
316.43580130589646
 11
94.066282662877967
 21
316.57285730589649
  0
LINE
  8
_0-0_0
  6
CONTINUOUS
 62
    7
 10
105.70605066287797
 20
315.13379230589646
 11
104.04322966287796
 21
312.15287630589648
  0
LINE
  8
_0-0_0
  6
CONTINUOUS
 62
    7
 10
102.86707966287796
 20
314.89394530589652
 11
103.23208966287797
 21
314.10589130589653
  0
LINE
  8
_0-0_0
  6
CONTINUOUS
 62
    7
 10
107.65276966287797
 20
310.88513230589649
 11
106.59829566287797
 21
309.44606630589647
  0
LINE
  8
_0-0_0
  6
CONTINUOUS
 62
    7
 10
109.59949266287796
 20
308.00700130589649
 11
111.01897266287799
 21
306.60220530589652
  0
LINE
  8
_0-0_0
  6
CONTINUOUS
 62
    7
 10
109.07225466287798
 20
305.4372503058965
 11
110.89730266287796
 21
305.30019630589652
  0
LINE
  8
_0-0_0
  6
CONTINUOUS
 62
    7
 10
103.63765966287798
 20
313.59193630589652
 11
103.63765966287798
 21
312.4269843058965
  0
LINE
  8
_0-0_0
  6
CONTINUOUS
 62
    7
 10
108.42334866287797
 20
312.66682530589651
 11
108.42334866287797
 21
312.15287630589648
  0
LINE
  8
_0-0_0
  6
CONTINUOUS
 62
    7
 10
108.30167766287798
 20
311.1249733058965
 11
109.35615466287797
 21
311.50187130589649
  0
LINE
  8
_0-0_0
  6
CONTINUOUS
 62
    7
 10
110.61340866287796
 20
311.77598130589649
 11
111.14064366287798
 21
311.77598130589649
  0
LINE
  8
_0-0_0
  6
CONTINUOUS
 62
    7
 10
108.70724266287797
 20
314.75689430589648
 11
108.42334866287797
 21
313.59193630589652
  0
LINE
  8
_0-0_0
  6
CONTINUOUS
 62
    7
 10
102.21817366287797
 20
318.38881530589651
 11
104.81380066287798
 21
317.73781230589645
  0
LINE
  8
_0-0_0
  6
CONTINUOUS
 62
    7
 10
98.203064662877978
 20
317.73781230589645
 11
101.56926666287796
 21
318.38881530589651
  0
LINE
  8
_0-0_0
  6
CONTINUOUS
 62
    7
 10
95.364096662877984
 20
316.70991130589653
 11
96.256342662877984
 21
317.22386030589649
  0
LINE
  8
_0-0_0
  6
CONTINUOUS
 62
    7
 10
100.79869266287798
 20
315.9218493058965
 11
101.04203266287797
 21
315.9218493058965
  0
LINE
  8
_0-0_0
  6
CONTINUOUS
 62
    7
 10
98.851969662877963
 20
315.13379230589646
 11
99.865886662877955
 21
315.78479830589652
  0
LINE
  8
_0-0_0
  6
CONTINUOUS
 62
    7
 10
101.56926666287796
 20
315.64774630589648
 11
102.46151766287798
 21
315.54495130589646
  0
LINE
  8
_0-0_0
  6
CONTINUOUS
 62
    7
 10
107.89611066287796
 20
316.43580130589646
 11
108.70724266287797
 21
315.40789730589654
  0
LINE
  8
_0-0_0
  6
CONTINUOUS
 62
    7
 10
115.15575666287796
 20
306.19104530589652
 11
115.03408866287796
 21
302.8332323058965
  0
LINE
  8
_0-0_0
  6
CONTINUOUS
 62
    7
 10
114.02016766287798
 20
295.32954530589649
 11
114.79074666287798
 21
293.89048230589651
  0
LINE
  8
_0-0_0
  6
CONTINUOUS
 62
    7
 10
117.87305666287799
 20
291.4235173058965
 11
120.46868466287796
 21
288.20275730589651
  0
LINE
  8
_0-0_0
  6
CONTINUOUS
 62
    7
 10
116.08856166287796
 20
289.5047683058965
 11
116.98080666287797
 21
288.33981130589649
  0
LINE
  8
_0-0_0
  6
CONTINUOUS
 62
    7
 10
117.75138666287796
 20
285.9756373058965
 11
117.62971266287798
 21
285.08478930589649
  0
LINE
  8
_0-0_0
  6
CONTINUOUS
 62
    7
 10
117.22414566287796
 20
284.70789130589651
 11
116.21022966287796
 21
283.91983230589653
  0
LINE
  8
_0-0_0
  6
CONTINUOUS
 62
    7
 10
117.50804166287796
 20
287.68880730589649
 11
117.87305666287799
 21
286.52385130589653
  0
LINE
  8
_0-0_0
  6
CONTINUOUS
 62
    7
 10
114.66907866287798
 20
290.01871830589653
 11
115.80466266287797
 21
289.60755730589653
  0
LINE
  8
_0-0_0
  6
CONTINUOUS
 62
    7
 10
116.08856166287796
 20
293.37653330589649
 11
118.80585666287797
 21
292.21157630589653
  0
LINE
  8
_0-0_0
  6
CONTINUOUS
 62
    7
 10
113.61460566287798
 20
298.68735830589651
 11
113.37126466287796
 21
297.24829530589648
  0
LINE
  8
_0-0_0
  6
CONTINUOUS
 62
    7
 10
111.78954966287796
 20
300.22921230589645
 11
111.66788466287798
 21
299.71526330589649
  0
LINE
  8
_0-0_0
  6
CONTINUOUS
 62
    7
 10
111.78954966287796
 20
301.66827530589649
 11
111.78954966287796
 21
301.01727030589649
  0
LINE
  8
_0-0_0
  6
CONTINUOUS
 62
    7
 10
114.79074666287798
 20
301.15432330589647
 11
114.14184066287797
 21
299.98936830589651
  0
LINE
  8
_0-0_0
  6
CONTINUOUS
 62
    7
 10
111.54621166287797
 20
302.69617530589653
 11
111.66788466287798
 21
302.18222630589651
  0
LINE
  8
_0-0_0
  6
CONTINUOUS
 62
    7
 10
114.66907866287798
 20
309.44606630589647
 11
115.15575666287796
 21
307.76716230589648
  0
LINE
  8
_0-0_0
  6
CONTINUOUS
 62
    7
 10
112.56012666287796
 20
311.50187130589649
 11
113.37126466287796
 21
311.1249733058965
  0
LINE
  8
_0-0_0
  6
CONTINUOUS
 62
    7
 10
78.504842662877962
 20
327.02547630589652
 11
81.82829666287796
 21
327.02547630589652
  0
ARC
  8
_0-0_0
  6
CONTINUOUS
 62
    7
 10
94.241636662877966
 20
319.78616830589647
 40
2.7788499999999998
 50
195.289772
 51
299.71027600000002
  0
ARC
  8
_0-0_0
  6
CONTINUOUS
 62
    7
 10
62.241617662877957
 20
319.78616830589647
 40
2.7788499999999998
 50
240.28977199999997
 51
344.71027600000002
  0
ARC
  8
_0-0_0
  6
CONTINUOUS
 62
    7
 10
54.638103662877967
 20
304.76225130589648
 40
14.063708
 50
63.722476
 51
135.00000299999999
  0
ARC
  8
_0-0_0
  6
CONTINUOUS
 62
    7
 10
54.638103662877967
 20
304.76225130589648
 40
14.063708
 50
135.00000299999999
 51
206.27752799999999
  0
ARC
  8
_0-0_0
  6
CONTINUOUS
 62
    7
 10
39.614186662877984
 20
297.15873830589646
 40
2.7788499999999998
 50
285.28977200000003
 51
29.710276000000032
  0
ARC
  8
_0-0_0
  6
CONTINUOUS
 62
    7
 10
44.861204662877952
 20
281.15872830589649
 40
14.063708
 50
108.722476
 51
180.00000299999999
  0
ARC
  8
_0-0_0
  6
CONTINUOUS
 62
    7
 10
44.861204662877952
 20
281.15872830589649
 40
14.063708
 50
180.00000299999999
 51
251.27752799999999
  0
ARC
  8
_0-0_0
  6
CONTINUOUS
 62
    7
 10
39.614186662877984
 20
265.15871830589651
 40
2.7788499999999998
 50
330.28977200000014
 51
74.710276000000135
  0
ARC
  8
_0-0_0
  6
CONTINUOUS
 62
    7
 10
54.638103662877967
 20
257.5552043058965
 40
14.063708
 50
153.722476
 51
225.00000299999999
  0
ARC
  8
_0-0_0
  6
CONTINUOUS
 62
    7
 10
54.638103662877967
 20
257.5552043058965
 40
14.063708
 50
225.00000300000002
 51
296.27752800000002
  0
ARC
  8
_0-0_0
  6
CONTINUOUS
 62
    7
 10
62.241616662877959
 20
242.53128730589651
 40
2.7788499999999998
 50
15.289771999999999
 51
119.71027600000001
  0
ARC
  8
_0-0_0
  6
CONTINUOUS
 62
    7
 10
78.241626662877962
 20
247.77830530589648
 40
14.063708
 50
198.722476
 51
270.00000299999999
  0
ARC
  8
_0-0_0
  6
CONTINUOUS
 62
    7
 10
78.241626662877962
 20
247.77830530589648
 40
14.063708
 50
270.00000299999999
 51
341.27752800000002
  0
ARC
  8
_0-0_0
  6
CONTINUOUS
 62
    7
 10
94.241636662877966
 20
242.53128730589651
 40
2.7788499999999998
 50
60.289772000000006
 51
164.71027599999999
  0
ARC
  8
_0-0_0
  6
CONTINUOUS
 62
    7
 10
101.84515066287796
 20
257.5552043058965
 40
14.063708
 50
243.72247600000003
 51
315.00000300000005
  0
ARC
  8
_0-0_0
  6
CONTINUOUS
 62
    7
 10
101.84515066287796
 20
257.5552043058965
 40
14.063708
 50
315.00000299999999
 51
26.277528000000014
  0
ARC
  8
_0-0_0
  6
CONTINUOUS
 62
    7
 10
116.86906766287797
 20
265.15871830589651
 40
2.7788499999999998
 50
105.28977199999999
 51
209.71027599999999
  0
ARC
  8
_0-0_0
  6
CONTINUOUS
 62
    7
 10
111.62204966287797
 20
281.15872830589649
 40
14.063708
 50
288.72247599999997
 51
0.0000029999999991
  0
ARC
  8
_0-0_0
  6
CONTINUOUS
 62
    7
 10
111.62204966287797
 20
281.15872830589649
 40
14.063708
 50
0.000003
 51
71.277528000000004
  0
ARC
  8
_0-0_0
  6
CONTINUOUS
 62
    7
 10
116.86906766287797
 20
297.15873730589647
 40
2.7788499999999998
 50
150.289772
 51
254.71027599999999
  0
ARC
  8
_0-0_0
  6
CONTINUOUS
 62
    7
 10
101.84515066287796
 20
304.76225130589648
 40
14.063708
 50
333.72247600000003
 51
45.000003000000049
  0
ARC
  8
_0-0_0
  6
CONTINUOUS
 62
    7
 10
101.84515066287796
 20
304.76225130589648
 40
14.063708
 50
45.000003
 51
116.27752799999999
  0
ENDSEC
  0
EOF
