  0
SECTION
  2
HEADER
  9
$ACADVER
  1
AC1009
  9
$INSBASE
 10
0
 20
0
 30
0
  9
$EXTMIN
 10
0
 20
0
  9
$EXTMAX
 10
420
 20
297
  9
$LIMMIN
 10
0
 20
0
  9
$LIMMAX
 10
420
 20
297
  9
$LTSCALE
 40
1
  0
ENDSEC
  0
SECTION
  2
TABLES
  0
TABLE
  2
LTYPE
 70
     9
  0
LTYPE
  2
CONTINUOUS
 70
    64
  3
実線
 72
    65
 73
     0
 40
0.0
  0
LTYPE
  2
DASHED1
 70
    64
  3
--  --  --  --  --  --  --  --  
 72
    65
 73
     2
 40
2.5
 49
1.25
 49
-1.25
  0
LTYPE
  2
DASHED2
 70
    64
  3
----    ----    ----    ----    
 72
    65
 73
     2
 40
5.0
 49
2.5
 49
-2.5
  0
LTYPE
  2
DASHED3
 70
    64
  3
------  ------  ------  ------  
 72
    65
 73
     2
 40
5.0
 49
3.75
 49
-1.25
  0
LTYPE
  2
CENTER1
 70
    64
  3
----- - ----- - ----- - ----- - 
 72
    65
 73
     4
 40
10.0
 49
6.25
 49
-1.25
 49
1.25
 49
-1.25
  0
LTYPE
  2
CENTER2
 70
    64
  3
----------  --  ----------  --  
 72
    65
 73
     4
 40
20.0
 49
12.5
 49
-2.5
 49
2.5
 49
-2.5
  0
LTYPE
  2
PHANTOM1
 70
    64
  3
--- - - --- - - --- - - --- - - 
 72
    65
 73
     6
 40
10.0
 49
3.25
 49
-1.25
 49
1.25
 49
-1.25
 49
1.25
 49
-1.25
  0
LTYPE
  2
PHANTOM2
 70
    64
  3
--------  -  -  --------  -  -  
 72
    65
 73
     6
 40
20.0
 49
10.0
 49
-2.5
 49
1.25
 49
-2.5
 49
1.25
 49
-2.5
  0
LTYPE
  2
DOT
 70
    64
  3
-   -   -   -   -   -   -   -   
 72
    65
 73
     2
 40
2.5
 49
0.625
 49
-1.875
  0
LTYPE
  2
DUMMY
 70
    64
  3
ダミー
 72
    65
 73
     0
 40
0.0
  0
LTYPE
  2
RAND1
 70
    64
  3
ランダム線1
 72
    65
 73
     4
 40
10.0
 49
1.0
 49
-2.0
 49
3.0
 49
-4.0
  0
LTYPE
  2
RAND2
 70
    64
  3
ランダム線2
 72
    65
 73
     4
 40
14.0
 49
2.0
 49
-3.0
 49
4.0
 49
-5.0
  0
LTYPE
  2
RAND3
 70
    64
  3
ランダム線3
 72
    65
 73
     4
 40
18.0
 49
3.0
 49
-4.0
 49
5.0
 49
-6.0
  0
LTYPE
  2
RAND4
 70
    64
  3
ランダム線4
 72
    65
 73
     4
 40
22.0
 49
4.0
 49
-5.0
 49
6.0
 49
-7.0
  0
LTYPE
  2
RAND5
 70
    64
  3
ランダム線5
 72
    65
 73
     4
 40
26.0
 49
5.0
 49
-6.0
 49
7.0
 49
-8.0
  0
LTYPE
  2
LONG1
 70
    64
  3
----------  --  ----------  --  
 72
    65
 73
     4
 40
40.0
 49
32.5
 49
-2.5
 49
2.5
 49
-2.5
  0
LTYPE
  2
LONG2
 70
    64
  3
--------  -  -  --------  -  -  
 72
    65
 73
     6
 40
40.0
 49
30.0
 49
-2.5
 49
1.25
 49
-2.5
 49
1.25
 49
-2.5
  0
LTYPE
  2
LONG3
 70
    64
  3
+++++++++++++++..+++++++++++++++
 72
    65
 73
     2
 40
40.0
 49
37.5
 49
-2.5
  0
LTYPE
  2
LONG4
 70
    64
  3
+++++++++++++++..+++++++++++++++
 72
    65
 73
     2
 40
80.0
 49
75.0
 49
-5.0
  0
LTYPE
  2
LONG5
 70
    64
  3
----------  --  ----------  --  
 72
    65
 73
     4
 40
60.0
 49
37.5
 49
-7.5
 49
7.5
 49
-7.5
  0
LTYPE
  2
dashed
 70
   64
  3
-------   -------------   ------
 72
   65
 73
    2
 40
7.5
 49
6
 49
-1.5
  0
LTYPE
  2
dashed_spaced
 70
   64
  3
----        --------        ----
 72
   65
 73
    2
 40
12
 49
6
 49
-6
  0
LTYPE
  2
long_dashed_dotted
 70
   64
  3
------------- --- --------------
 72
   65
 73
    4
 40
15.25
 49
12
 49
-1.5
 49
0.25
 49
-1.5
  0
LTYPE
  2
long_dashed_double-dotted
 70
   64
  3
----------- --- --- ------------
 72
   65
 73
    6
 40
17
 49
12
 49
-1.5
 49
0.25
 49
-1.5
 49
0.25
 49
-1.5
  0
LTYPE
  2
long_dashed_triplicate-dotted
 70
   64
  3
--------- --- --- --- ----------
 72
   65
 73
    8
 40
18.75
 49
12
 49
-1.5
 49
0.25
 49
-1.5
 49
0.25
 49
-1.5
 49
0.25
 49
-1.5
  0
LTYPE
  2
dotted
 70
   64
  3
   -       -       -       -    
 72
   65
 73
    2
 40
1.75
 49
0.25
 49
-1.5
  0
LTYPE
  2
chain
 70
   64
  3
-------------- -- --------------
 72
   65
 73
    4
 40
18.5
 49
12
 49
-1.5
 49
3.5
 49
-1.5
  0
LTYPE
  2
chain_double_dash
 70
   64
  3
------------ -- -- -------------
 72
   65
 73
    6
 40
23.5
 49
12
 49
-1.5
 49
3.5
 49
-1.5
 49
3.5
 49
-1.5
  0
LTYPE
  2
dashed_dotted
 70
   64
  3
-----------     -     ----------
 72
   65
 73
    4
 40
9.25
 49
6
 49
-1.5
 49
0.25
 49
-1.5
  0
LTYPE
  2
double-dashed_dotted
 70
   64
  3
------   -----------   -   -----
 72
   65
 73
    6
 40
16.75
 49
6
 49
-1.5
 49
6
 49
-1.5
 49
0.25
 49
-1.5
  0
LTYPE
  2
dashed_double-dotted
 70
   64
  3
---------    -    -    ---------
 72
   65
 73
    6
 40
11
 49
6
 49
-1.5
 49
0.25
 49
-1.5
 49
0.25
 49
-1.5
  0
LTYPE
  2
double-dashed_double-dotted
 70
   64
  3
-----   ---------   -   -   ----
 72
   65
 73
    8
 40
18.5
 49
6
 49
-1.5
 49
6
 49
-1.5
 49
0.25
 49
-1.5
 49
0.25
 49
-1.5
  0
LTYPE
  2
dashed_triplicate-dotted
 70
   64
  3
-------    -    -    -    ------
 72
   65
 73
    8
 40
12.75
 49
6
 49
-1.5
 49
0.25
 49
-1.5
 49
0.25
 49
-1.5
 49
0.25
 49
-1.5
  0
LTYPE
  2
double-dashed_triplicate-dotted
 70
   64
  3
-----  ---------  -  -  -  -----
 72
   65
 73
   10
 40
20.25
 49
6
 49
-1.5
 49
6
 49
-1.5
 49
0.25
 49
-1.5
 49
0.25
 49
-1.5
 49
0.25
 49
-1.5
  0
LTYPE
  2
undefined
 70
   64
  3
--------------------------------
 72
   65
 73
    0
 40
0
  0
ENDTAB
  0
TABLE
  2
STYLE
  5
3
100
AcDbSymbolTable
 70
     1
  0
STYLE
  5
10
100
AcDbSymbolTableRecord
100
AcDbTextStyleTableRecord
  2
STANDARD
 70
     0
 40
0.0
 41
1.0
 50
0.0
 71
     0
 42
0.2
  3
txt
  4
bigfont.shx
  0
STYLE
  5
26
100
AcDbSymbolTableRecord
100
AcDbTextStyleTableRecord
  2
TATEGAKI
 70
    68
 40
0.0
 41
1.0
 50
0.0
 71
     0
 42
1.0
  3
txt
  4
bigfont.shx
  0
ENDTAB
  0
TABLE
  2
LAYER
 70
    2
  0
LAYER
  2
_0-0_0
 70
   64
 62
    7
  6
CONTINUOUS
  0
LAYER
  2
ADD_LINE
 70
   64
 62
    7
  6
CONTINUOUS
  0
ENDTAB
  0
ENDSEC
  0
SECTION
  2
BLOCKS
  0
ENDSEC
  0
SECTION
  2
ENTITIES
  0
ARC
  8
_0-0_0
  6
CONTINUOUS
 62
    7
 10
213.88342399999999
 20
102.54020250000001
 40
11.298937
 50
349.37313699999999
 51
45.028285000000011
  0
ARC
  8
_0-0_0
  6
CONTINUOUS
 62
    7
 10
242.046595
 20
133.75003750000002
 40
30.759270999999998
 50
187.500741
 51
229.005752
  0
ARC
  8
_0-0_0
  6
CONTINUOUS
 62
    7
 10
215.65103500000001
 20
131.60356849999999
 40
4.5062810000000004
 50
66.197900000000004
 51
204.50134200000002
  0
ARC
  8
_0-0_0
  6
CONTINUOUS
 62
    7
 10
218.26955699999999
 20
139.08988049999999
 40
3.4571100000000001
 50
256.62209200000001
 51
63.921048999999968
  0
ARC
  8
_0-0_0
  6
CONTINUOUS
 62
    7
 10
220.44634400000001
 20
164.10138549999999
 40
2.4285459999999999
 50
112.16362500000001
 51
197.98393400000003
  0
ARC
  8
_0-0_0
  6
CONTINUOUS
 62
    7
 10
215.753748
 20
170.61546950000002
 40
5.6966219999999996
 50
311.52315199999998
 51
24.827237000000061
  0
ARC
  8
_0-0_0
  6
CONTINUOUS
 62
    7
 10
223.75922299999999
 20
174.77692250000001
 40
3.3422049999999999
 50
153.466824
 51
211.968132
  0
ARC
  8
_0-0_0
  6
CONTINUOUS
 62
    7
 10
219.42953499999999
 20
178.8348905
 40
2.8936549999999999
 50
297.57497700000005
 51
30.199910000000031
  0
ARC
  8
_0-0_0
  6
CONTINUOUS
 62
    7
 10
209.52569099999999
 20
172.1738795
 40
14.824199
 50
33.197167999999991
 51
106.28016799999999
  0
ARC
  8
_0-0_0
  6
CONTINUOUS
 62
    7
 10
214.06667899999999
 20
201.22183750000002
 40
11.001322
 50
338.90491600000001
 51
133.57505899999998
  0
ARC
  8
_0-0_0
  6
CONTINUOUS
 62
    7
 10
207.581898
 20
207.19116750000001
 40
2.2825169999999999
 50
118.767332
 51
299.21343000000002
  0
ARC
  8
_0-0_0
  6
CONTINUOUS
 62
    7
 10
210.51892699999999
 20
202.46059250000002
 40
3.2896990000000006
 50
345.76783599999999
 51
123.65282899999998
  0
ARC
  8
_0-0_0
  6
CONTINUOUS
 62
    7
 10
194.93578200000002
 20
203.5401975
 40
18.866620999999999
 50
287.96826099999998
 51
354.25557500000002
  0
ARC
  8
_0-0_0
  6
CONTINUOUS
 62
    7
 10
213.94148100000001
 20
150.81352850000002
 40
37.195739000000003
 50
110.76222
 51
181.31928300000001
  0
ARC
  8
_0-0_0
  6
CONTINUOUS
 62
    7
 10
211.617412
 20
154.1964255
 40
35.118617
 50
186.93327500000001
 51
233.063512
  0
ARC
  8
_0-0_0
  6
CONTINUOUS
 62
    7
 10
105.87729300000001
 20
27.032002500000019
 40
130.31858600000001
 50
36.236168000000006
 51
49.499330000000008
  0
ARC
  8
_0-0_0
  6
CONTINUOUS
 62
    7
 10
205.42013399999999
 20
100.84484450000001
 40
6.4343809999999992
 50
342.31807100000003
 51
30.033158000000054
  0
ARC
  8
_0-0_0
  6
CONTINUOUS
 62
    7
 10
214.818692
 20
97.460635500000009
 40
3.5672669999999997
 50
156.36973599999999
 51
326.39069799999999
  0
ARC
  8
_0-0_0
  6
CONTINUOUS
 62
    7
 10
286.02578900000003
 20
4.3554584999999975
 40
113.84622
 50
122.42108700000001
 51
126.82489200000003
  0
ARC
  8
_0-0_0
  6
CONTINUOUS
 62
    7
 10
219.62089600000002
 20
179.5312715
 40
2.4582999999999999
 50
296.38562300000001
 51
17.440201999999992
  0
ARC
  8
_0-0_0
  6
CONTINUOUS
 62
    7
 10
206.015614
 20
204.20082650000001
 40
19.58539
 50
294.01606600000002
 51
339.25117899999998
  0
ARC
  8
_0-0_0
  6
CONTINUOUS
 62
    7
 10
223.037567
 20
175.5866915
 40
2.9047770000000002
 50
143.141873
 51
207.41001900000003
  0
ARC
  8
_0-0_0
  6
CONTINUOUS
 62
    7
 10
219.12516199999999
 20
165.0639865
 40
1.450682
 50
119.516836
 51
201.17111900000003
  0
ARC
  8
_0-0_0
  6
CONTINUOUS
 62
    7
 10
213.03957299999999
 20
162.41647950000001
 40
5.187398
 50
15.651154999999999
 51
24.165417999999999
  0
ARC
  8
_0-0_0
  6
CONTINUOUS
 62
    7
 10
215.133895
 20
172.26051949999999
 40
6.7786419999999996
 50
298.90536100000003
 51
336.53615200000002
  0
ARC
  8
_0-0_0
  6
CONTINUOUS
 62
    7
 10
213.98260200000001
 20
150.10412450000001
 40
13.377803
 50
128.38303600000003
 51
223.119235
  0
ARC
  8
_0-0_0
  6
CONTINUOUS
 62
    7
 10
218.008274
 20
139.49472750000001
 40
3.2480509999999998
 50
264.24849000000006
 51
54.80587500000005
  0
ARC
  8
_0-0_0
  6
CONTINUOUS
 62
    7
 10
215.598949
 20
132.0873325
 40
4.6667620000000003
 50
63.479177
 51
208.24813700000004
  0
ARC
  8
_0-0_0
  6
CONTINUOUS
 62
    7
 10
213.943949
 20
202.12587550000001
 40
8.2193640000000006
 50
342.88123400000006
 51
119.73936300000004
  0
ARC
  8
_0-0_0
  6
CONTINUOUS
 62
    7
 10
201.064528
 20
205.4641475
 40
21.519207000000002
 50
301.32811099999998
 51
344.48091899999997
  0
ARC
  8
_0-0_0
  6
CONTINUOUS
 62
    7
 10
209.474929
 20
208.0696465
 40
0.7822379999999999
 50
113.70228899999999
 51
308.706929
  0
ARC
  8
_0-0_0
  6
CONTINUOUS
 62
    7
 10
213.54865000000001
 20
201.55203850000001
 40
6.9096880000000001
 50
333.44215800000006
 51
121.24994200000006
  0
ARC
  8
_0-0_0
  6
CONTINUOUS
 62
    7
 10
200.892504
 20
206.88359650000001
 40
20.633330999999998
 50
283.89828799999998
 51
335.913184
  0
ARC
  8
_0-0_0
  6
CONTINUOUS
 62
    7
 10
220.21409500000001
 20
145.83012250000002
 40
43.203693000000001
 50
110.09542999999999
 51
161.8177
  0
ARC
  8
_0-0_0
  6
CONTINUOUS
 62
    7
 10
210.24157600000001
 20
152.45623649999999
 40
31.821138000000005
 50
167.55923899999999
 51
227.525226
  0
ARC
  8
_0-0_0
  6
CONTINUOUS
 62
    7
 10
159.70358200000001
 20
86.460910500000011
 40
51.500320000000002
 50
35.344186999999998
 51
55.661594999999998
  0
ARC
  8
_0-0_0
  6
CONTINUOUS
 62
    7
 10
210.02535
 20
163.99979250000001
 40
18.764074000000001
 50
55.737631999999998
 51
125.71277400000002
  0
ARC
  8
_0-0_0
  6
CONTINUOUS
 62
    7
 10
219.962186
 20
150.85640549999999
 40
35.238467999999997
 50
126.35692899999999
 51
216.27511199999998
  0
ARC
  8
_0-0_0
  6
CONTINUOUS
 62
    7
 10
218.296289
 20
151.48674650000001
 40
34.80133
 50
125.61040300000002
 51
232.05398300000002
  0
ARC
  8
_0-0_0
  6
CONTINUOUS
 62
    7
 10
208.42109099999999
 20
162.77606850000001
 40
13.328646000000001
 50
39.203783000000001
 51
124.28941700000001
  0
ARC
  8
_0-0_0
  6
CONTINUOUS
 62
    7
 10
221.142324
 20
147.66783750000002
 40
33.038421
 50
127.75777300000001
 51
216.75819799999999
  0
ARC
  8
_0-0_0
  6
CONTINUOUS
 62
    7
 10
180.85283200000001
 20
107.80328650000001
 40
24.387035000000001
 50
32.625
 51
55.479506000000001
  0
ARC
  8
_0-0_0
  6
CONTINUOUS
 62
    7
 10
132.033725
 20
53.773395500000007
 40
96.557974000000002
 50
32.675857000000001
 51
44.085093999999998
  0
ARC
  8
_0-0_0
  6
CONTINUOUS
 62
    7
 10
208.072461
 20
156.10040950000001
 40
16.240621000000001
 50
71.185023999999999
 51
145.59443000000002
  0
ARC
  8
_0-0_0
  6
CONTINUOUS
 62
    7
 10
224.09918999999999
 20
146.9952605
 40
34.642851999999998
 50
148.14819600000001
 51
215.26141699999999
  0
ARC
  8
_0-0_0
  6
CONTINUOUS
 62
    7
 10
207.348893
 20
154.19253450000002
 40
14.447124000000001
 50
46.848530000000004
 51
151.33017700000002
  0
ARC
  8
_0-0_0
  6
CONTINUOUS
 62
    7
 10
223.35144700000001
 20
147.0561745
 40
31.942909
 50
153.87082899999999
 51
212.83776499999999
  0
ARC
  8
_0-0_0
  6
CONTINUOUS
 62
    7
 10
-655.86469999999997
 20
-594.16276349999998
 40
1118.2909990000001
 50
39.115476000000001
 51
40.340200000000003
  0
ARC
  8
_0-0_0
  6
CONTINUOUS
 62
    7
 10
206.21485899999999
 20
155.50202849999999
 40
10.898230999999999
 50
29.395956000000005
 51
127.15734500000003
  0
ARC
  8
_0-0_0
  6
CONTINUOUS
 62
    7
 10
221.903199
 20
145.76219850000001
 40
28.904909
 50
140.397899
 51
226.14958500000003
  0
ARC
  8
_0-0_0
  6
CONTINUOUS
 62
    7
 10
223.054147
 20
145.44014650000003
 40
27.20795
 50
149.41178099999999
 51
198.935284
  0
ARC
  8
_0-0_0
  6
CONTINUOUS
 62
    7
 10
214.15210200000001
 20
150.9565035
 40
32.730094000000001
 50
141.79159899999999
 51
230.59931700000004
  0
ARC
  8
_0-0_0
  6
CONTINUOUS
 62
    7
 10
215.64285000000001
 20
135.4792855
 40
6.6827529999999999
 50
54.227699999999999
 51
157.45430200000001
  0
ARC
  8
_0-0_0
  6
CONTINUOUS
 62
    7
 10
233.21192300000001
 20
131.78162250000003
 40
24.552531999999999
 50
165.228669
 51
213.88878100000002
  0
ARC
  8
_0-0_0
  6
CONTINUOUS
 62
    7
 10
213.23633799999999
 20
139.8885415
 40
4.3680250000000003
 50
55.507786000000003
 51
143.81560300000001
  0
ARC
  8
_0-0_0
  6
CONTINUOUS
 62
    7
 10
224.73206400000001
 20
132.03472049999999
 40
18.288754999999998
 50
145.21901500000001
 51
176.973029
  0
ARC
  8
_0-0_0
  6
CONTINUOUS
 62
    7
 10
251.50451100000001
 20
157.85024850000002
 40
58.199808999999995
 50
201.40350900000001
 51
223.83159699999999
  0
ARC
  8
_0-0_0
  6
CONTINUOUS
 62
    7
 10
251.949636
 20
133.95088850000002
 40
45.490744999999997
 50
181.19713200000004
 51
201.14034200000003
  0
ARC
  8
_0-0_0
  6
CONTINUOUS
 62
    7
 10
216.62558799999999
 20
132.11513450000001
 40
12.921366000000001
 50
137.15840800000001
 51
206.59587399999998
  0
ARC
  8
_0-0_0
  6
CONTINUOUS
 62
    7
 10
242.36135300000001
 20
146.8484105
 40
42.562044999999998
 50
173.04831999999999
 51
208.82102599999999
  0
ARC
  8
_0-0_0
  6
CONTINUOUS
 62
    7
 10
216.68928299999999
 20
103.97883950000001
 40
7.2896169999999998
 50
312.65996899999999
 51
41.022098999999983
  0
ARC
  8
_0-0_0
  6
CONTINUOUS
 62
    7
 10
213.917284
 20
200.93904650000002
 40
5.3130689999999996
 50
325.00108299999999
 51
81.854557999999983
  0
ARC
  8
_0-0_0
  6
CONTINUOUS
 62
    7
 10
188.42226700000001
 20
163.4743565
 40
29.714431000000005
 50
359.45094500000005
 51
359.76324800000003
  0
ARC
  8
_0-0_0
  6
CONTINUOUS
 62
    7
 10
208.36167800000001
 20
155.82190550000001
 40
5.4729729999999996
 50
34.044842000000003
 51
119.386229
  0
ARC
  8
_0-0_0
  6
CONTINUOUS
 62
    7
 10
206.53726800000001
 20
155.89702449999999
 40
7.6915139999999997
 50
23.883804999999999
 51
153.86282399999999
  0
ARC
  8
_0-0_0
  6
CONTINUOUS
 62
    7
 10
208.25346999999999
 20
154.97772850000001
 40
5.1521270000000001
 50
90.642647999999994
 51
151.29078000000004
  0
ARC
  8
_0-0_0
  6
CONTINUOUS
 62
    7
 10
212.06289100000001
 20
165.2410495
 40
6.4095969999999998
 50
232.89002600000003
 51
343.57406099999997
  0
ARC
  8
_0-0_0
  6
CONTINUOUS
 62
    7
 10
211.08639199999999
 20
129.6212645
 40
15.306148
 50
54.933019000000009
 51
114.43671200000001
  0
ARC
  8
_0-0_0
  6
CONTINUOUS
 62
    7
 10
216.00729200000001
 20
149.87238150000002
 40
14.424863999999999
 50
148.29818700000001
 51
204.25934799999999
  0
ARC
  8
_0-0_0
  6
CONTINUOUS
 62
    7
 10
204.211398
 20
145.73043749999999
 40
2.2409560000000002
 50
232.79030499999999
 51
284.02344499999998
  0
ARC
  8
_0-0_0
  6
CONTINUOUS
 62
    7
 10
208.55364
 20
132.84606050000002
 40
14.616553
 50
39.763015000000003
 51
39.972527999999997
  0
ENDSEC
  0
EOF
