  0
SECTION
  2
HEADER
  9
$ACADVER
  1
AC1009
  9
$INSBASE
 10
0
 20
0
 30
0
  9
$EXTMIN
 10
0
 20
0
  9
$EXTMAX
 10
420
 20
297
  9
$LIMMIN
 10
0
 20
0
  9
$LIMMAX
 10
420
 20
297
  9
$LTSCALE
 40
1
  0
ENDSEC
  0
SECTION
  2
TABLES
  0
TABLE
  2
LTYPE
 70
     9
  0
LTYPE
  2
CONTINUOUS
 70
    64
  3
実線
 72
    65
 73
     0
 40
0.0
  0
LTYPE
  2
DASHED1
 70
    64
  3
--  --  --  --  --  --  --  --  
 72
    65
 73
     2
 40
2.5
 49
1.25
 49
-1.25
  0
LTYPE
  2
DASHED2
 70
    64
  3
----    ----    ----    ----    
 72
    65
 73
     2
 40
5.0
 49
2.5
 49
-2.5
  0
LTYPE
  2
DASHED3
 70
    64
  3
------  ------  ------  ------  
 72
    65
 73
     2
 40
5.0
 49
3.75
 49
-1.25
  0
LTYPE
  2
CENTER1
 70
    64
  3
----- - ----- - ----- - ----- - 
 72
    65
 73
     4
 40
10.0
 49
6.25
 49
-1.25
 49
1.25
 49
-1.25
  0
LTYPE
  2
CENTER2
 70
    64
  3
----------  --  ----------  --  
 72
    65
 73
     4
 40
20.0
 49
12.5
 49
-2.5
 49
2.5
 49
-2.5
  0
LTYPE
  2
PHANTOM1
 70
    64
  3
--- - - --- - - --- - - --- - - 
 72
    65
 73
     6
 40
10.0
 49
3.25
 49
-1.25
 49
1.25
 49
-1.25
 49
1.25
 49
-1.25
  0
LTYPE
  2
PHANTOM2
 70
    64
  3
--------  -  -  --------  -  -  
 72
    65
 73
     6
 40
20.0
 49
10.0
 49
-2.5
 49
1.25
 49
-2.5
 49
1.25
 49
-2.5
  0
LTYPE
  2
DOT
 70
    64
  3
-   -   -   -   -   -   -   -   
 72
    65
 73
     2
 40
2.5
 49
0.625
 49
-1.875
  0
LTYPE
  2
DUMMY
 70
    64
  3
ダミー
 72
    65
 73
     0
 40
0.0
  0
LTYPE
  2
RAND1
 70
    64
  3
ランダム線1
 72
    65
 73
     4
 40
10.0
 49
1.0
 49
-2.0
 49
3.0
 49
-4.0
  0
LTYPE
  2
RAND2
 70
    64
  3
ランダム線2
 72
    65
 73
     4
 40
14.0
 49
2.0
 49
-3.0
 49
4.0
 49
-5.0
  0
LTYPE
  2
RAND3
 70
    64
  3
ランダム線3
 72
    65
 73
     4
 40
18.0
 49
3.0
 49
-4.0
 49
5.0
 49
-6.0
  0
LTYPE
  2
RAND4
 70
    64
  3
ランダム線4
 72
    65
 73
     4
 40
22.0
 49
4.0
 49
-5.0
 49
6.0
 49
-7.0
  0
LTYPE
  2
RAND5
 70
    64
  3
ランダム線5
 72
    65
 73
     4
 40
26.0
 49
5.0
 49
-6.0
 49
7.0
 49
-8.0
  0
LTYPE
  2
LONG1
 70
    64
  3
----------  --  ----------  --  
 72
    65
 73
     4
 40
40.0
 49
32.5
 49
-2.5
 49
2.5
 49
-2.5
  0
LTYPE
  2
LONG2
 70
    64
  3
--------  -  -  --------  -  -  
 72
    65
 73
     6
 40
40.0
 49
30.0
 49
-2.5
 49
1.25
 49
-2.5
 49
1.25
 49
-2.5
  0
LTYPE
  2
LONG3
 70
    64
  3
+++++++++++++++..+++++++++++++++
 72
    65
 73
     2
 40
40.0
 49
37.5
 49
-2.5
  0
LTYPE
  2
LONG4
 70
    64
  3
+++++++++++++++..+++++++++++++++
 72
    65
 73
     2
 40
80.0
 49
75.0
 49
-5.0
  0
LTYPE
  2
LONG5
 70
    64
  3
----------  --  ----------  --  
 72
    65
 73
     4
 40
60.0
 49
37.5
 49
-7.5
 49
7.5
 49
-7.5
  0
LTYPE
  2
dashed
 70
   64
  3
-------   -------------   ------
 72
   65
 73
    2
 40
7.5
 49
6
 49
-1.5
  0
LTYPE
  2
dashed_spaced
 70
   64
  3
----        --------        ----
 72
   65
 73
    2
 40
12
 49
6
 49
-6
  0
LTYPE
  2
long_dashed_dotted
 70
   64
  3
------------- --- --------------
 72
   65
 73
    4
 40
15.25
 49
12
 49
-1.5
 49
0.25
 49
-1.5
  0
LTYPE
  2
long_dashed_double-dotted
 70
   64
  3
----------- --- --- ------------
 72
   65
 73
    6
 40
17
 49
12
 49
-1.5
 49
0.25
 49
-1.5
 49
0.25
 49
-1.5
  0
LTYPE
  2
long_dashed_triplicate-dotted
 70
   64
  3
--------- --- --- --- ----------
 72
   65
 73
    8
 40
18.75
 49
12
 49
-1.5
 49
0.25
 49
-1.5
 49
0.25
 49
-1.5
 49
0.25
 49
-1.5
  0
LTYPE
  2
dotted
 70
   64
  3
   -       -       -       -    
 72
   65
 73
    2
 40
1.75
 49
0.25
 49
-1.5
  0
LTYPE
  2
chain
 70
   64
  3
-------------- -- --------------
 72
   65
 73
    4
 40
18.5
 49
12
 49
-1.5
 49
3.5
 49
-1.5
  0
LTYPE
  2
chain_double_dash
 70
   64
  3
------------ -- -- -------------
 72
   65
 73
    6
 40
23.5
 49
12
 49
-1.5
 49
3.5
 49
-1.5
 49
3.5
 49
-1.5
  0
LTYPE
  2
dashed_dotted
 70
   64
  3
-----------     -     ----------
 72
   65
 73
    4
 40
9.25
 49
6
 49
-1.5
 49
0.25
 49
-1.5
  0
LTYPE
  2
double-dashed_dotted
 70
   64
  3
------   -----------   -   -----
 72
   65
 73
    6
 40
16.75
 49
6
 49
-1.5
 49
6
 49
-1.5
 49
0.25
 49
-1.5
  0
LTYPE
  2
dashed_double-dotted
 70
   64
  3
---------    -    -    ---------
 72
   65
 73
    6
 40
11
 49
6
 49
-1.5
 49
0.25
 49
-1.5
 49
0.25
 49
-1.5
  0
LTYPE
  2
double-dashed_double-dotted
 70
   64
  3
-----   ---------   -   -   ----
 72
   65
 73
    8
 40
18.5
 49
6
 49
-1.5
 49
6
 49
-1.5
 49
0.25
 49
-1.5
 49
0.25
 49
-1.5
  0
LTYPE
  2
dashed_triplicate-dotted
 70
   64
  3
-------    -    -    -    ------
 72
   65
 73
    8
 40
12.75
 49
6
 49
-1.5
 49
0.25
 49
-1.5
 49
0.25
 49
-1.5
 49
0.25
 49
-1.5
  0
LTYPE
  2
double-dashed_triplicate-dotted
 70
   64
  3
-----  ---------  -  -  -  -----
 72
   65
 73
   10
 40
20.25
 49
6
 49
-1.5
 49
6
 49
-1.5
 49
0.25
 49
-1.5
 49
0.25
 49
-1.5
 49
0.25
 49
-1.5
  0
LTYPE
  2
undefined
 70
   64
  3
--------------------------------
 72
   65
 73
    0
 40
0
  0
ENDTAB
  0
TABLE
  2
STYLE
  5
3
100
AcDbSymbolTable
 70
     1
  0
STYLE
  5
10
100
AcDbSymbolTableRecord
100
AcDbTextStyleTableRecord
  2
STANDARD
 70
     0
 40
0.0
 41
1.0
 50
0.0
 71
     0
 42
0.2
  3
txt
  4
bigfont.shx
  0
STYLE
  5
26
100
AcDbSymbolTableRecord
100
AcDbTextStyleTableRecord
  2
TATEGAKI
 70
    68
 40
0.0
 41
1.0
 50
0.0
 71
     0
 42
1.0
  3
txt
  4
bigfont.shx
  0
ENDTAB
  0
TABLE
  2
LAYER
 70
    2
  0
LAYER
  2
_0-0_0
 70
   64
 62
    7
  6
CONTINUOUS
  0
LAYER
  2
ADD_LINE
 70
   64
 62
    7
  6
CONTINUOUS
  0
ENDTAB
  0
ENDSEC
  0
SECTION
  2
BLOCKS
  0
ENDSEC
  0
SECTION
  2
ENTITIES
  0
ARC
  8
_0-0_0
  6
CONTINUOUS
 62
    7
 10
209.213008
 20
206.86312150000001
 40
20.633330999999998
 50
204.086816
 51
256.10171200000002
  0
ARC
  8
_0-0_0
  6
CONTINUOUS
 62
    7
 10
196.55686200000002
 20
201.5315635
 40
6.9096880000000001
 50
58.75005800000001
 51
206.55784200000002
  0
ARC
  8
_0-0_0
  6
CONTINUOUS
 62
    7
 10
209.04098500000001
 20
205.44367249999999
 40
21.519207000000002
 50
195.519081
 51
238.67188900000002
  0
ARC
  8
_0-0_0
  6
CONTINUOUS
 62
    7
 10
196.161564
 20
202.1054005
 40
8.2193640000000006
 50
60.260637000000003
 51
197.11876600000002
  0
ARC
  8
_0-0_0
  6
CONTINUOUS
 62
    7
 10
192.097239
 20
139.47425250000001
 40
3.2480509999999998
 50
125.194125
 51
275.75151
  0
ARC
  8
_0-0_0
  6
CONTINUOUS
 62
    7
 10
194.97161700000001
 20
172.24004450000001
 40
6.7786419999999996
 50
203.46384800000004
 51
241.09463900000003
  0
ARC
  8
_0-0_0
  6
CONTINUOUS
 62
    7
 10
204.089899
 20
204.1803515
 40
19.58539
 50
200.74882099999996
 51
245.983934
  0
ARC
  8
_0-0_0
  6
CONTINUOUS
 62
    7
 10
190.48461700000001
 20
179.5107965
 40
2.4582999999999999
 50
162.559798
 51
243.61437699999999
  0
ARC
  8
_0-0_0
  6
CONTINUOUS
 62
    7
 10
124.079724
 20
4.3349834999999928
 40
113.84622
 50
53.175108000000002
 51
57.578912999999993
  0
ARC
  8
_0-0_0
  6
CONTINUOUS
 62
    7
 10
196.03883300000001
 20
201.20136250000002
 40
11.001322
 50
46.424940999999997
 51
201.09508400000001
  0
ARC
  8
_0-0_0
  6
CONTINUOUS
 62
    7
 10
200.57982100000001
 20
172.15340450000002
 40
14.824199
 50
73.719832000000011
 51
146.802832
  0
ARC
  8
_0-0_0
  6
CONTINUOUS
 62
    7
 10
190.67597799999999
 20
178.8144155
 40
2.8936549999999999
 50
149.80009000000001
 51
242.42502300000001
  0
ARC
  8
_0-0_0
  6
CONTINUOUS
 62
    7
 10
186.34628900000001
 20
174.75644750000001
 40
3.3422049999999999
 50
328.03186799999997
 51
26.533176000000019
  0
ARC
  8
_0-0_0
  6
CONTINUOUS
 62
    7
 10
194.351764
 20
170.59499449999998
 40
5.6966219999999996
 50
155.172763
 51
228.47684799999999
  0
ARC
  8
_0-0_0
  6
CONTINUOUS
 62
    7
 10
191.83595600000001
 20
139.06940550000002
 40
3.4571100000000001
 50
116.078951
 51
283.37790799999993
  0
ARC
  8
_0-0_0
  6
CONTINUOUS
 62
    7
 10
168.05891800000001
 20
133.72956249999999
 40
30.759270999999998
 50
310.99424800000003
 51
352.499259
  0
ARC
  8
_0-0_0
  6
CONTINUOUS
 62
    7
 10
200.080163
 20
163.97931750000001
 40
18.764074000000001
 50
54.287225999999997
 51
124.26236800000001
  0
ARC
  8
_0-0_0
  6
CONTINUOUS
 62
    7
 10
189.89141799999999
 20
145.80964749999998
 40
43.203693000000001
 50
18.182300000000001
 51
69.904570000000007
  0
ARC
  8
_0-0_0
  6
CONTINUOUS
 62
    7
 10
196.16403200000002
 20
150.79305349999998
 40
37.195739000000003
 50
358.68071700000002
 51
69.237780000000015
  0
ARC
  8
_0-0_0
  6
CONTINUOUS
 62
    7
 10
158.15587600000001
 20
133.93041349999999
 40
45.490744999999997
 50
338.85965800000002
 51
358.80286799999999
  0
ARC
  8
_0-0_0
  6
CONTINUOUS
 62
    7
 10
158.60100199999999
 20
157.82977349999999
 40
58.199809000000002
 50
316.16840300000007
 51
338.59649100000007
  0
ARC
  8
_0-0_0
  6
CONTINUOUS
 62
    7
 10
176.89359000000002
 20
131.76114749999999
 40
24.552531999999999
 50
326.11121900000001
 51
14.771331000000005
  0
ARC
  8
_0-0_0
  6
CONTINUOUS
 62
    7
 10
188.202314
 20
145.74172350000001
 40
28.904909
 50
313.850415
 51
39.602101000000019
  0
ARC
  8
_0-0_0
  6
CONTINUOUS
 62
    7
 10
1065.9702130000001
 20
-594.18323850000002
 40
1118.2909990000001
 50
139.65980000000002
 51
140.88452400000003
  0
ARC
  8
_0-0_0
  6
CONTINUOUS
 62
    7
 10
229.252681
 20
107.78281150000001
 40
24.387035000000001
 50
124.52049400000001
 51
147.37500000000003
  0
ARC
  8
_0-0_0
  6
CONTINUOUS
 62
    7
 10
191.809223
 20
151.4662715
 40
34.80133
 50
307.94601700000004
 51
54.389597000000059
  0
ARC
  8
_0-0_0
  6
CONTINUOUS
 62
    7
 10
250.40193099999999
 20
86.440435500000007
 40
51.500320000000002
 50
124.33840500000001
 51
144.65581300000002
  0
ARC
  8
_0-0_0
  6
CONTINUOUS
 62
    7
 10
304.22821999999996
 20
27.0115275
 40
130.31858600000001
 50
130.50067000000001
 51
143.76383200000004
  0
ARC
  8
_0-0_0
  6
CONTINUOUS
 62
    7
 10
195.286821
 20
97.440160500000005
 40
3.5672670000000002
 50
213.60930200000004
 51
23.630264000000057
  0
ARC
  8
_0-0_0
  6
CONTINUOUS
 62
    7
 10
278.07178699999997
 20
53.752920500000002
 40
96.557974000000002
 50
135.914906
 51
147.32414299999999
  0
ARC
  8
_0-0_0
  6
CONTINUOUS
 62
    7
 10
204.68537900000001
 20
100.8243695
 40
6.4343810000000001
 50
149.96684200000001
 51
197.68192900000003
  0
ARC
  8
_0-0_0
  6
CONTINUOUS
 62
    7
 10
194.09822100000002
 20
149.85190649999998
 40
14.424863999999999
 50
335.74065200000001
 51
31.701813000000019
  0
ARC
  8
_0-0_0
  6
CONTINUOUS
 62
    7
 10
195.95341100000002
 20
150.93602850000002
 40
32.730094000000001
 50
309.40068300000001
 51
38.208400999999988
  0
ARC
  8
_0-0_0
  6
CONTINUOUS
 62
    7
 10
187.051366
 20
145.41967149999999
 40
27.20795
 50
341.06471599999998
 51
30.588218999999985
  0
ARC
  8
_0-0_0
  6
CONTINUOUS
 62
    7
 10
186.754065
 20
147.03569950000002
 40
31.942909
 50
327.16223500000001
 51
26.129170999999996
  0
ARC
  8
_0-0_0
  6
CONTINUOUS
 62
    7
 10
186.00632300000001
 20
146.9747855
 40
34.642851999999998
 50
324.73858300000001
 51
31.851804000000037
  0
ARC
  8
_0-0_0
  6
CONTINUOUS
 62
    7
 10
188.963189
 20
147.64736249999999
 40
33.038421
 50
323.24180200000006
 51
52.242227000000064
  0
ARC
  8
_0-0_0
  6
CONTINUOUS
 62
    7
 10
190.143327
 20
150.83593050000002
 40
35.238467999999997
 50
323.72488800000008
 51
53.643071000000063
  0
ARC
  8
_0-0_0
  6
CONTINUOUS
 62
    7
 10
199.86393700000002
 20
152.43576150000001
 40
31.821138000000001
 50
312.47477400000002
 51
12.440760999999984
  0
ARC
  8
_0-0_0
  6
CONTINUOUS
 62
    7
 10
196.12290999999999
 20
150.08364950000001
 40
13.377803
 50
316.88076500000005
 51
51.616964000000024
  0
ARC
  8
_0-0_0
  6
CONTINUOUS
 62
    7
 10
198.488101
 20
154.1759505
 40
35.118617
 50
306.936488
 51
353.06672500000002
  0
ARC
  8
_0-0_0
  6
CONTINUOUS
 62
    7
 10
201.551873
 20
132.82558549999999
 40
14.616553
 50
140.02747199999999
 51
140.236985
  0
ARC
  8
_0-0_0
  6
CONTINUOUS
 62
    7
 10
205.894115
 20
145.70996250000002
 40
2.2409560000000002
 50
255.97655500000002
 51
307.20969500000001
  0
ARC
  8
_0-0_0
  6
CONTINUOUS
 62
    7
 10
199.01912099999998
 20
129.60078950000002
 40
15.306148
 50
65.563288
 51
125.066981
  0
ARC
  8
_0-0_0
  6
CONTINUOUS
 62
    7
 10
167.74416000000002
 20
146.8279355
 40
42.562044999999998
 50
331.17897399999998
 51
6.9516800000000085
  0
ARC
  8
_0-0_0
  6
CONTINUOUS
 62
    7
 10
193.47992400000001
 20
132.09465950000001
 40
12.921366000000001
 50
333.40412600000002
 51
42.841591999999977
  0
ARC
  8
_0-0_0
  6
CONTINUOUS
 62
    7
 10
185.373448
 20
132.01424550000002
 40
18.288754999999998
 50
3.0269710000000001
 51
34.780985000000001
  0
ARC
  8
_0-0_0
  6
CONTINUOUS
 62
    7
 10
196.86917499999998
 20
139.8680665
 40
4.3680250000000003
 50
36.184396999999997
 51
124.49221399999999
  0
ARC
  8
_0-0_0
  6
CONTINUOUS
 62
    7
 10
194.46266200000002
 20
135.4588105
 40
6.6827529999999999
 50
22.545697999999998
 51
125.7723
  0
ARC
  8
_0-0_0
  6
CONTINUOUS
 62
    7
 10
194.506564
 20
132.0668575
 40
4.6667620000000003
 50
331.75186300000001
 51
116.52082299999998
  0
ARC
  8
_0-0_0
  6
CONTINUOUS
 62
    7
 10
194.45447799999999
 20
131.58309350000002
 40
4.5062810000000004
 50
335.49865799999998
 51
113.80210000000001
  0
ARC
  8
_0-0_0
  6
CONTINUOUS
 62
    7
 10
202.75662
 20
154.17205949999999
 40
14.447124000000001
 50
28.669823000000004
 51
133.15146999999999
  0
ARC
  8
_0-0_0
  6
CONTINUOUS
 62
    7
 10
202.033052
 20
156.07993450000001
 40
16.240621000000001
 50
34.405569999999997
 51
108.814976
  0
ARC
  8
_0-0_0
  6
CONTINUOUS
 62
    7
 10
198.042621
 20
165.2205745
 40
6.4095969999999998
 50
196.42593900000003
 51
307.10997400000002
  0
ARC
  8
_0-0_0
  6
CONTINUOUS
 62
    7
 10
201.85204300000001
 20
154.95725350000001
 40
5.1521270000000001
 50
28.709220000000002
 51
89.357352000000006
  0
ARC
  8
_0-0_0
  6
CONTINUOUS
 62
    7
 10
203.56824399999999
 20
155.87654950000001
 40
7.6915139999999997
 50
26.137176
 51
156.116195
  0
ARC
  8
_0-0_0
  6
CONTINUOUS
 62
    7
 10
201.74383499999999
 20
155.80143050000001
 40
5.4729729999999996
 50
60.613771000000007
 51
145.95515800000001
  0
ARC
  8
_0-0_0
  6
CONTINUOUS
 62
    7
 10
221.683246
 20
163.45388150000002
 40
29.714431000000001
 50
180.23675200000002
 51
180.54905500000001
  0
ARC
  8
_0-0_0
  6
CONTINUOUS
 62
    7
 10
203.89065299999999
 20
155.48155350000002
 40
10.898230999999999
 50
52.842655000000001
 51
150.60404399999999
  0
ARC
  8
_0-0_0
  6
CONTINUOUS
 62
    7
 10
201.68442199999998
 20
162.7555935
 40
13.328646000000001
 50
55.710583
 51
140.79621700000001
  0
ARC
  8
_0-0_0
  6
CONTINUOUS
 62
    7
 10
197.06594000000001
 20
162.3960045
 40
5.187398
 50
155.83458200000004
 51
164.34884500000001
  0
ARC
  8
_0-0_0
  6
CONTINUOUS
 62
    7
 10
190.98034999999999
 20
165.04351150000002
 40
1.450682
 50
338.82888100000008
 51
60.483164000000031
  0
ARC
  8
_0-0_0
  6
CONTINUOUS
 62
    7
 10
187.06794500000001
 20
175.5662165
 40
2.9047770000000002
 50
332.58998100000002
 51
36.858127000000032
  0
ARC
  8
_0-0_0
  6
CONTINUOUS
 62
    7
 10
189.65916900000002
 20
164.08091050000002
 40
2.4285459999999999
 50
342.01606600000002
 51
67.836374999999975
  0
ARC
  8
_0-0_0
  6
CONTINUOUS
 62
    7
 10
196.18822800000001
 20
200.91857150000001
 40
5.3130689999999996
 50
98.145442000000003
 51
214.99891700000003
  0
ARC
  8
_0-0_0
  6
CONTINUOUS
 62
    7
 10
200.630583
 20
208.0491715
 40
0.7822379999999999
 50
231.29307099999997
 51
66.297710999999978
  0
ARC
  8
_0-0_0
  6
CONTINUOUS
 62
    7
 10
215.16973100000001
 20
203.5197225
 40
18.866620999999999
 50
185.74442500000001
 51
252.03173900000002
  0
ARC
  8
_0-0_0
  6
CONTINUOUS
 62
    7
 10
199.58658600000001
 20
202.44011750000001
 40
3.2896990000000002
 50
56.347171000000003
 51
194.23216400000004
  0
ARC
  8
_0-0_0
  6
CONTINUOUS
 62
    7
 10
202.52361400000001
 20
207.1706925
 40
2.2825169999999999
 50
240.78657000000001
 51
61.232667999999997
  0
ARC
  8
_0-0_0
  6
CONTINUOUS
 62
    7
 10
193.41622999999998
 20
103.9583645
 40
7.2896169999999998
 50
138.977901
 51
227.34003100000001
  0
ARC
  8
_0-0_0
  6
CONTINUOUS
 62
    7
 10
196.22208799999999
 20
102.5197275
 40
11.298937
 50
134.97171499999999
 51
190.62686299999999
  0
ENDSEC
  0
EOF
