  0
SECTION
  2
HEADER
  9
$ACADVER
  1
AC1009
  9
$INSBASE
 10
0
 20
0
 30
0
  9
$EXTMIN
 10
0
 20
0
  9
$EXTMAX
 10
420
 20
297
  9
$LIMMIN
 10
0
 20
0
  9
$LIMMAX
 10
420
 20
297
  9
$LTSCALE
 40
1
  0
ENDSEC
  0
SECTION
  2
TABLES
  0
TABLE
  2
LTYPE
 70
     9
  0
LTYPE
  2
CONTINUOUS
 70
    64
  3
実線
 72
    65
 73
     0
 40
0.0
  0
LTYPE
  2
DASHED1
 70
    64
  3
--  --  --  --  --  --  --  --  
 72
    65
 73
     2
 40
2.5
 49
1.25
 49
-1.25
  0
LTYPE
  2
DASHED2
 70
    64
  3
----    ----    ----    ----    
 72
    65
 73
     2
 40
5.0
 49
2.5
 49
-2.5
  0
LTYPE
  2
DASHED3
 70
    64
  3
------  ------  ------  ------  
 72
    65
 73
     2
 40
5.0
 49
3.75
 49
-1.25
  0
LTYPE
  2
CENTER1
 70
    64
  3
----- - ----- - ----- - ----- - 
 72
    65
 73
     4
 40
10.0
 49
6.25
 49
-1.25
 49
1.25
 49
-1.25
  0
LTYPE
  2
CENTER2
 70
    64
  3
----------  --  ----------  --  
 72
    65
 73
     4
 40
20.0
 49
12.5
 49
-2.5
 49
2.5
 49
-2.5
  0
LTYPE
  2
PHANTOM1
 70
    64
  3
--- - - --- - - --- - - --- - - 
 72
    65
 73
     6
 40
10.0
 49
3.25
 49
-1.25
 49
1.25
 49
-1.25
 49
1.25
 49
-1.25
  0
LTYPE
  2
PHANTOM2
 70
    64
  3
--------  -  -  --------  -  -  
 72
    65
 73
     6
 40
20.0
 49
10.0
 49
-2.5
 49
1.25
 49
-2.5
 49
1.25
 49
-2.5
  0
LTYPE
  2
DOT
 70
    64
  3
-   -   -   -   -   -   -   -   
 72
    65
 73
     2
 40
2.5
 49
0.625
 49
-1.875
  0
LTYPE
  2
DUMMY
 70
    64
  3
ダミー
 72
    65
 73
     0
 40
0.0
  0
LTYPE
  2
RAND1
 70
    64
  3
ランダム線1
 72
    65
 73
     4
 40
10.0
 49
1.0
 49
-2.0
 49
3.0
 49
-4.0
  0
LTYPE
  2
RAND2
 70
    64
  3
ランダム線2
 72
    65
 73
     4
 40
14.0
 49
2.0
 49
-3.0
 49
4.0
 49
-5.0
  0
LTYPE
  2
RAND3
 70
    64
  3
ランダム線3
 72
    65
 73
     4
 40
18.0
 49
3.0
 49
-4.0
 49
5.0
 49
-6.0
  0
LTYPE
  2
RAND4
 70
    64
  3
ランダム線4
 72
    65
 73
     4
 40
22.0
 49
4.0
 49
-5.0
 49
6.0
 49
-7.0
  0
LTYPE
  2
RAND5
 70
    64
  3
ランダム線5
 72
    65
 73
     4
 40
26.0
 49
5.0
 49
-6.0
 49
7.0
 49
-8.0
  0
LTYPE
  2
LONG1
 70
    64
  3
----------  --  ----------  --  
 72
    65
 73
     4
 40
40.0
 49
32.5
 49
-2.5
 49
2.5
 49
-2.5
  0
LTYPE
  2
LONG2
 70
    64
  3
--------  -  -  --------  -  -  
 72
    65
 73
     6
 40
40.0
 49
30.0
 49
-2.5
 49
1.25
 49
-2.5
 49
1.25
 49
-2.5
  0
LTYPE
  2
LONG3
 70
    64
  3
+++++++++++++++..+++++++++++++++
 72
    65
 73
     2
 40
40.0
 49
37.5
 49
-2.5
  0
LTYPE
  2
LONG4
 70
    64
  3
+++++++++++++++..+++++++++++++++
 72
    65
 73
     2
 40
80.0
 49
75.0
 49
-5.0
  0
LTYPE
  2
LONG5
 70
    64
  3
----------  --  ----------  --  
 72
    65
 73
     4
 40
60.0
 49
37.5
 49
-7.5
 49
7.5
 49
-7.5
  0
LTYPE
  2
dashed
 70
   64
  3
-------   -------------   ------
 72
   65
 73
    2
 40
7.5
 49
6
 49
-1.5
  0
LTYPE
  2
dashed_spaced
 70
   64
  3
----        --------        ----
 72
   65
 73
    2
 40
12
 49
6
 49
-6
  0
LTYPE
  2
long_dashed_dotted
 70
   64
  3
------------- --- --------------
 72
   65
 73
    4
 40
15.25
 49
12
 49
-1.5
 49
0.25
 49
-1.5
  0
LTYPE
  2
long_dashed_double-dotted
 70
   64
  3
----------- --- --- ------------
 72
   65
 73
    6
 40
17
 49
12
 49
-1.5
 49
0.25
 49
-1.5
 49
0.25
 49
-1.5
  0
LTYPE
  2
long_dashed_triplicate-dotted
 70
   64
  3
--------- --- --- --- ----------
 72
   65
 73
    8
 40
18.75
 49
12
 49
-1.5
 49
0.25
 49
-1.5
 49
0.25
 49
-1.5
 49
0.25
 49
-1.5
  0
LTYPE
  2
dotted
 70
   64
  3
   -       -       -       -    
 72
   65
 73
    2
 40
1.75
 49
0.25
 49
-1.5
  0
LTYPE
  2
chain
 70
   64
  3
-------------- -- --------------
 72
   65
 73
    4
 40
18.5
 49
12
 49
-1.5
 49
3.5
 49
-1.5
  0
LTYPE
  2
chain_double_dash
 70
   64
  3
------------ -- -- -------------
 72
   65
 73
    6
 40
23.5
 49
12
 49
-1.5
 49
3.5
 49
-1.5
 49
3.5
 49
-1.5
  0
LTYPE
  2
dashed_dotted
 70
   64
  3
-----------     -     ----------
 72
   65
 73
    4
 40
9.25
 49
6
 49
-1.5
 49
0.25
 49
-1.5
  0
LTYPE
  2
double-dashed_dotted
 70
   64
  3
------   -----------   -   -----
 72
   65
 73
    6
 40
16.75
 49
6
 49
-1.5
 49
6
 49
-1.5
 49
0.25
 49
-1.5
  0
LTYPE
  2
dashed_double-dotted
 70
   64
  3
---------    -    -    ---------
 72
   65
 73
    6
 40
11
 49
6
 49
-1.5
 49
0.25
 49
-1.5
 49
0.25
 49
-1.5
  0
LTYPE
  2
double-dashed_double-dotted
 70
   64
  3
-----   ---------   -   -   ----
 72
   65
 73
    8
 40
18.5
 49
6
 49
-1.5
 49
6
 49
-1.5
 49
0.25
 49
-1.5
 49
0.25
 49
-1.5
  0
LTYPE
  2
dashed_triplicate-dotted
 70
   64
  3
-------    -    -    -    ------
 72
   65
 73
    8
 40
12.75
 49
6
 49
-1.5
 49
0.25
 49
-1.5
 49
0.25
 49
-1.5
 49
0.25
 49
-1.5
  0
LTYPE
  2
double-dashed_triplicate-dotted
 70
   64
  3
-----  ---------  -  -  -  -----
 72
   65
 73
   10
 40
20.25
 49
6
 49
-1.5
 49
6
 49
-1.5
 49
0.25
 49
-1.5
 49
0.25
 49
-1.5
 49
0.25
 49
-1.5
  0
LTYPE
  2
undefined
 70
   64
  3
--------------------------------
 72
   65
 73
    0
 40
0
  0
ENDTAB
  0
TABLE
  2
STYLE
  5
3
100
AcDbSymbolTable
 70
     1
  0
STYLE
  5
10
100
AcDbSymbolTableRecord
100
AcDbTextStyleTableRecord
  2
STANDARD
 70
     0
 40
0.0
 41
1.0
 50
0.0
 71
     0
 42
0.2
  3
txt
  4
bigfont.shx
  0
STYLE
  5
26
100
AcDbSymbolTableRecord
100
AcDbTextStyleTableRecord
  2
TATEGAKI
 70
    68
 40
0.0
 41
1.0
 50
0.0
 71
     0
 42
1.0
  3
txt
  4
bigfont.shx
  0
ENDTAB
  0
TABLE
  2
LAYER
 70
    2
  0
LAYER
  2
_0-0_0
 70
   64
 62
    7
  6
CONTINUOUS
  0
LAYER
  2
ADD_LINE
 70
   64
 62
    7
  6
CONTINUOUS
  0
ENDTAB
  0
ENDSEC
  0
SECTION
  2
BLOCKS
  0
ENDSEC
  0
SECTION
  2
ENTITIES
  0
ARC
  8
_0-0_0
  6
CONTINUOUS
 62
    7
 10
219.10198600000001
 20
82.239178500000008
 40
15.504543999999999
 50
349.37316299999998
 51
45.028303999999984
  0
ARC
  8
_0-0_0
  6
CONTINUOUS
 62
    7
 10
257.74785200000002
 20
125.06571550000001
 40
42.208263000000002
 50
187.50074000000001
 51
229.00575000000001
  0
ARC
  8
_0-0_0
  6
CONTINUOUS
 62
    7
 10
221.52751499999999
 20
122.12031150000001
 40
6.1835760000000004
 50
66.197813000000011
 51
204.50140800000003
  0
ARC
  8
_0-0_0
  6
CONTINUOUS
 62
    7
 10
225.12068600000001
 20
132.39310850000001
 40
4.7438900000000004
 50
256.62217199999998
 51
63.92089400000004
  0
ARC
  8
_0-0_0
  6
CONTINUOUS
 62
    7
 10
211.788388
 20
123.82526750000001
 40
20.057020000000001
 50
39.762993000000002
 51
69.676632999999995
  0
ARC
  8
_0-0_0
  6
CONTINUOUS
 62
    7
 10
216.38036700000001
 20
138.12128849999999
 40
5.0988689999999997
 50
62.248999999999995
 51
176.53778700000004
  0
ARC
  8
_0-0_0
  6
CONTINUOUS
 62
    7
 10
207.77660800000001
 20
138.57310050000001
 40
3.5171380000000001
 50
240.14543399999997
 51
357.65530000000001
  0
ARC
  8
_0-0_0
  6
CONTINUOUS
 62
    7
 10
222.016392
 20
147.1890065
 40
19.793980999999999
 50
148.29819599999999
 51
216.11341300000004
  0
ARC
  8
_0-0_0
  6
CONTINUOUS
 62
    7
 10
211.37649900000002
 20
154.19462150000001
 40
7.069814
 50
13.727296000000001
 51
151.29078900000002
  0
ARC
  8
_0-0_0
  6
CONTINUOUS
 62
    7
 10
221.04169100000001
 20
156.98231050000001
 40
3.0095019999999999
 50
201.64390299999999
 51
326.69159400000001
  0
ARC
  8
_0-0_0
  6
CONTINUOUS
 62
    7
 10
184.16386900000001
 20
165.8538015
 40
40.774520000000003
 50
345.042304
 51
359.76324699999998
  0
ARC
  8
_0-0_0
  6
CONTINUOUS
 62
    7
 10
228.107708
 20
166.7142135
 40
3.3324820000000002
 50
112.163743
 51
197.98385099999999
  0
ARC
  8
_0-0_0
  6
CONTINUOUS
 62
    7
 10
221.66846900000002
 20
175.65293450000001
 40
7.8169769999999996
 50
311.52310999999997
 51
24.827268000000032
  0
ARC
  8
_0-0_0
  6
CONTINUOUS
 62
    7
 10
232.65367500000002
 20
181.36332250000001
 40
4.5862150000000002
 50
153.46683200000001
 51
211.96811700000001
  0
ARC
  8
_0-0_0
  6
CONTINUOUS
 62
    7
 10
226.71242900000001
 20
186.9317125
 40
3.97071
 50
297.57489399999997
 51
30.199922000000015
  0
ARC
  8
_0-0_0
  6
CONTINUOUS
 62
    7
 10
213.12225699999999
 20
177.7913925
 40
20.341954999999999
 50
33.197172999999999
 51
106.28018400000001
  0
ARC
  8
_0-0_0
  6
CONTINUOUS
 62
    7
 10
219.35345899999999
 20
217.65137750000002
 40
15.096152999999999
 50
338.90488699999997
 51
133.57507399999997
  0
ARC
  8
_0-0_0
  6
CONTINUOUS
 62
    7
 10
210.45495199999999
 20
225.84256950000002
 40
3.1320990000000002
 50
118.76735400000001
 51
299.21342900000008
  0
ARC
  8
_0-0_0
  6
CONTINUOUS
 62
    7
 10
214.48518000000001
 20
219.35122150000001
 40
4.5141669999999996
 50
345.76783399999999
 51
123.65284200000004
  0
ARC
  8
_0-0_0
  6
CONTINUOUS
 62
    7
 10
193.101788
 20
220.83266650000002
 40
25.889016999999999
 50
287.96825999999999
 51
354.25557400000002
  0
ARC
  8
_0-0_0
  6
CONTINUOUS
 62
    7
 10
219.18165199999999
 20
148.48044950000002
 40
51.040466000000002
 50
110.76222199999999
 51
181.31928199999999
  0
ARC
  8
_0-0_0
  6
CONTINUOUS
 62
    7
 10
215.992535
 20
153.12250850000001
 40
48.190212000000002
 50
186.93325999999999
 51
233.06351100000001
  0
ARC
  8
_0-0_0
  6
CONTINUOUS
 62
    7
 10
70.89460600000001
 20
-21.374131499999976
 40
178.82481100000001
 50
36.236170000000008
 51
49.499332000000003
  0
ARC
  8
_0-0_0
  6
CONTINUOUS
 62
    7
 10
207.488552
 20
79.912792500000009
 40
8.8293400000000002
 50
342.31804199999999
 51
30.033128999999963
  0
ARC
  8
_0-0_0
  6
CONTINUOUS
 62
    7
 10
220.38537200000002
 20
75.268933500000003
 40
4.8950490000000002
 50
156.369733
 51
326.39077900000001
  0
ARC
  8
_0-0_0
  6
CONTINUOUS
 62
    7
 10
318.096675
 20
-52.491166499999991
 40
156.22123500000001
 50
122.42108899999999
 51
126.824898
  0
ARC
  8
_0-0_0
  6
CONTINUOUS
 62
    7
 10
226.97501800000001
 20
187.88730950000001
 40
3.3733110000000002
 50
296.38562100000007
 51
17.440227000000043
  0
ARC
  8
_0-0_0
  6
CONTINUOUS
 62
    7
 10
208.30567600000001
 20
221.73917650000001
 40
26.875319999999999
 50
294.01606500000003
 51
339.251192
  0
ARC
  8
_0-0_0
  6
CONTINUOUS
 62
    7
 10
231.66341
 20
182.47449750000001
 40
3.9859710000000002
 50
143.14179300000001
 51
207.41003100000003
  0
ARC
  8
_0-0_0
  6
CONTINUOUS
 62
    7
 10
226.294758
 20
168.03510650000001
 40
1.990645
 50
119.51666
 51
201.17114499999997
  0
ARC
  8
_0-0_0
  6
CONTINUOUS
 62
    7
 10
217.94404200000002
 20
164.40217150000001
 40
7.118214
 50
15.651154999999999
 51
24.165437000000001
  0
ARC
  8
_0-0_0
  6
CONTINUOUS
 62
    7
 10
220.81789800000001
 20
177.9102895
 40
9.3017389999999995
 50
298.90535999999997
 51
336.53612299999998
  0
ARC
  8
_0-0_0
  6
CONTINUOUS
 62
    7
 10
211.52498300000002
 20
155.35300749999999
 40
7.5100829999999998
 50
0.780221
 51
119.38629200000003
  0
ARC
  8
_0-0_0
  6
CONTINUOUS
 62
    7
 10
219.23808700000001
 20
147.50699950000001
 40
18.357191
 50
128.38305099999999
 51
223.11922000000004
  0
ARC
  8
_0-0_0
  6
CONTINUOUS
 62
    7
 10
224.762157
 20
132.94865050000001
 40
4.4570169999999996
 50
264.24848800000001
 51
54.805966000000026
  0
ARC
  8
_0-0_0
  6
CONTINUOUS
 62
    7
 10
221.456051
 20
122.78413050000002
 40
6.4037899999999999
 50
63.479157999999998
 51
208.24815000000004
  0
ARC
  8
_0-0_0
  6
CONTINUOUS
 62
    7
 10
219.185047
 20
218.89191650000001
 40
11.278715999999999
 50
342.88121899999999
 51
119.73940600000003
  0
ARC
  8
_0-0_0
  6
CONTINUOUS
 62
    7
 10
201.511731
 20
223.47272750000002
 40
29.528928000000001
 50
301.32810999999998
 51
344.48091699999998
  0
ARC
  8
_0-0_0
  6
CONTINUOUS
 62
    7
 10
213.05260100000001
 20
227.04802950000001
 40
1.0733980000000001
 50
113.70269400000001
 51
308.70687299999997
  0
ARC
  8
_0-0_0
  6
CONTINUOUS
 62
    7
 10
218.642605
 20
218.1044875
 40
9.4815620000000003
 50
333.44217000000003
 51
121.24990900000003
  0
ARC
  8
_0-0_0
  6
CONTINUOUS
 62
    7
 10
201.275677
 20
225.4205115
 40
28.313317999999999
 50
283.89828699999998
 51
335.91319600000003
  0
ARC
  8
_0-0_0
  6
CONTINUOUS
 62
    7
 10
227.78901300000001
 20
141.64216250000001
 40
59.284655999999998
 50
110.095432
 51
161.81770299999999
  0
ARC
  8
_0-0_0
  6
CONTINUOUS
 62
    7
 10
214.104603
 20
150.7345995
 40
43.665370000000003
 50
167.559247
 51
227.52521100000001
  0
ARC
  8
_0-0_0
  6
CONTINUOUS
 62
    7
 10
144.755719
 20
60.174969500000003
 40
70.669393999999997
 50
35.344189
 51
55.661597
  0
ARC
  8
_0-0_0
  6
CONTINUOUS
 62
    7
 10
213.807896
 20
166.57480950000001
 40
25.7483
 50
55.737644000000003
 51
125.71279200000001
  0
ARC
  8
_0-0_0
  6
CONTINUOUS
 62
    7
 10
227.44334000000001
 20
148.5392875
 40
48.354671000000003
 50
126.35692400000003
 51
216.27512500000003
  0
ARC
  8
_0-0_0
  6
CONTINUOUS
 62
    7
 10
225.15738300000001
 20
149.4042465
 40
47.754829000000001
 50
125.61040800000001
 51
232.05398199999999
  0
ARC
  8
_0-0_0
  6
CONTINUOUS
 62
    7
 10
211.606503
 20
164.8956105
 40
18.289736999999999
 50
39.203792
 51
124.28942499999999
  0
ARC
  8
_0-0_0
  6
CONTINUOUS
 62
    7
 10
229.06274000000002
 20
144.16389050000001
 40
45.335742000000003
 50
127.75777200000002
 51
216.75818300000003
  0
ARC
  8
_0-0_0
  6
CONTINUOUS
 62
    7
 10
173.77699000000001
 20
89.46125450000001
 40
33.464199000000001
 50
32.625008000000008
 51
55.479518000000006
  0
ARC
  8
_0-0_0
  6
CONTINUOUS
 62
    7
 10
106.78678699999999
 20
15.320752500000026
 40
132.498075
 50
32.675851999999999
 51
44.085096000000007
  0
ARC
  8
_0-0_0
  6
CONTINUOUS
 62
    7
 10
211.12810899999999
 20
155.73517950000002
 40
22.285587
 50
71.185025999999993
 51
145.59444200000002
  0
ARC
  8
_0-0_0
  6
CONTINUOUS
 62
    7
 10
233.12019700000002
 20
143.24097850000001
 40
47.537363999999997
 50
148.14820499999999
 51
215.26141500000003
  0
ARC
  8
_0-0_0
  6
CONTINUOUS
 62
    7
 10
210.13522
 20
153.11716849999999
 40
19.824527
 50
46.848536000000003
 51
151.33018500000003
  0
ARC
  8
_0-0_0
  6
CONTINUOUS
 62
    7
 10
232.09413499999999
 20
143.32456550000001
 40
43.832464999999999
 50
153.87084200000001
 51
212.83776399999999
  0
ARC
  8
_0-0_0
  6
CONTINUOUS
 62
    7
 10
-974.3773819999999
 20
-873.78534350000007
 40
1534.533058
 50
39.115476999999998
 51
40.340198999999998
  0
ARC
  8
_0-0_0
  6
CONTINUOUS
 62
    7
 10
208.57909000000001
 20
154.91407350000003
 40
14.954692
 50
29.395968000000003
 51
127.15735000000001
  0
ARC
  8
_0-0_0
  6
CONTINUOUS
 62
    7
 10
230.10682300000002
 20
141.54896150000002
 40
39.663684000000003
 50
140.39790099999999
 51
226.14961099999999
  0
ARC
  8
_0-0_0
  6
CONTINUOUS
 62
    7
 10
209.02149600000001
 20
155.4560965
 40
10.554394
 50
10.075616999999999
 51
153.862808
  0
ARC
  8
_0-0_0
  6
CONTINUOUS
 62
    7
 10
231.68616900000001
 20
141.10703649999999
 40
37.335093999999998
 50
149.41178000000002
 51
198.93526900000001
  0
ARC
  8
_0-0_0
  6
CONTINUOUS
 62
    7
 10
219.47066100000001
 20
148.6766465
 40
44.912654000000003
 50
141.79158699999999
 51
230.59931500000002
  0
ARC
  8
_0-0_0
  6
CONTINUOUS
 62
    7
 10
221.5163
 20
127.43861050000001
 40
9.1701589999999999
 50
54.227694999999997
 51
157.454319
  0
ARC
  8
_0-0_0
  6
CONTINUOUS
 62
    7
 10
245.62480500000001
 20
122.36463550000001
 40
33.691294999999997
 50
165.228669
 51
213.888766
  0
ARC
  8
_0-0_0
  6
CONTINUOUS
 62
    7
 10
218.21404699999999
 20
133.48905550000001
 40
5.9938599999999997
 50
55.507781000000008
 51
143.815628
  0
ARC
  8
_0-0_0
  6
CONTINUOUS
 62
    7
 10
233.98862800000001
 20
122.71192550000001
 40
25.096063000000001
 50
145.21901
 51
176.97302400000004
  0
ARC
  8
_0-0_0
  6
CONTINUOUS
 62
    7
 10
270.72609999999997
 20
158.13633350000001
 40
79.862516999999997
 50
201.40350799999999
 51
223.83160899999999
  0
ARC
  8
_0-0_0
  6
CONTINUOUS
 62
    7
 10
271.33694000000003
 20
125.34132050000001
 40
62.422980000000003
 50
181.19713100000004
 51
201.14032700000004
  0
ARC
  8
_0-0_0
  6
CONTINUOUS
 62
    7
 10
222.86481900000001
 20
122.82227750000001
 40
17.730862999999999
 50
137.15841699999999
 51
206.5959
  0
ARC
  8
_0-0_0
  6
CONTINUOUS
 62
    7
 10
258.17976700000003
 20
143.03947049999999
 40
58.404181999999999
 50
173.04832300000004
 51
208.82103900000004
  0
ARC
  8
_0-0_0
  6
CONTINUOUS
 62
    7
 10
222.95222100000001
 20
84.213299500000005
 40
10.002905999999999
 50
312.65999499999998
 51
41.022070000000014
  0
ARC
  8
_0-0_0
  6
CONTINUOUS
 62
    7
 10
219.148449
 20
217.26333150000002
 40
7.2906599999999999
 50
325.00105399999995
 51
81.854552999999981
  0
ARC
  8
_0-0_0
  6
CONTINUOUS
 62
    7
 10
219.101991
 20
82.239171500000012
 40
15.504543999999999
 50
349.37316299999998
 51
45.028303999999984
  0
ARC
  8
_0-0_0
  6
CONTINUOUS
 62
    7
 10
257.74785700000001
 20
125.06570850000001
 40
42.208263000000002
 50
187.50074000000001
 51
229.00575000000001
  0
ARC
  8
_0-0_0
  6
CONTINUOUS
 62
    7
 10
221.52752000000001
 20
122.12030450000002
 40
6.1835760000000004
 50
66.197813000000011
 51
204.50140800000003
  0
ARC
  8
_0-0_0
  6
CONTINUOUS
 62
    7
 10
225.12069099999999
 20
132.3931005
 40
4.7438900000000004
 50
256.62217199999998
 51
63.92089400000004
  0
ARC
  8
_0-0_0
  6
CONTINUOUS
 62
    7
 10
211.78839199999999
 20
123.82526050000001
 40
20.057020000000001
 50
39.762993000000002
 51
69.676632999999995
  0
ARC
  8
_0-0_0
  6
CONTINUOUS
 62
    7
 10
216.38037200000002
 20
138.12128050000001
 40
5.0988689999999997
 50
62.248999999999995
 51
176.53778700000004
  0
ARC
  8
_0-0_0
  6
CONTINUOUS
 62
    7
 10
207.776613
 20
138.57309350000003
 40
3.5171380000000001
 50
240.14543399999997
 51
357.65530000000001
  0
ARC
  8
_0-0_0
  6
CONTINUOUS
 62
    7
 10
222.01639700000001
 20
147.18899950000002
 40
19.793980999999999
 50
148.29819599999999
 51
216.11341300000004
  0
ARC
  8
_0-0_0
  6
CONTINUOUS
 62
    7
 10
211.37650400000001
 20
154.1946145
 40
7.069814
 50
13.727296000000001
 51
151.29078900000002
  0
ARC
  8
_0-0_0
  6
CONTINUOUS
 62
    7
 10
221.041696
 20
156.9823035
 40
3.0095019999999999
 50
201.64390299999999
 51
326.69159400000001
  0
ARC
  8
_0-0_0
  6
CONTINUOUS
 62
    7
 10
184.16387400000002
 20
165.85379350000002
 40
40.774520000000003
 50
345.042304
 51
359.76324699999998
  0
ARC
  8
_0-0_0
  6
CONTINUOUS
 62
    7
 10
228.10771299999999
 20
166.71420650000002
 40
3.3324820000000002
 50
112.163743
 51
197.98385099999999
  0
ARC
  8
_0-0_0
  6
CONTINUOUS
 62
    7
 10
221.668474
 20
175.65292650000001
 40
7.8169769999999996
 50
311.52310999999997
 51
24.827268000000032
  0
ARC
  8
_0-0_0
  6
CONTINUOUS
 62
    7
 10
232.65368000000001
 20
181.3633155
 40
4.5862150000000002
 50
153.46683200000001
 51
211.96811700000001
  0
ARC
  8
_0-0_0
  6
CONTINUOUS
 62
    7
 10
226.712434
 20
186.93170450000002
 40
3.97071
 50
297.57489399999997
 51
30.199922000000015
  0
ARC
  8
_0-0_0
  6
CONTINUOUS
 62
    7
 10
213.12226200000001
 20
177.79138550000002
 40
20.341954999999999
 50
33.197172999999999
 51
106.28018400000001
  0
ARC
  8
_0-0_0
  6
CONTINUOUS
 62
    7
 10
219.353463
 20
217.65136950000002
 40
15.096152999999999
 50
338.90488699999997
 51
133.57507399999997
  0
ARC
  8
_0-0_0
  6
CONTINUOUS
 62
    7
 10
210.45495700000001
 20
225.84256250000001
 40
3.1320990000000002
 50
118.76735400000001
 51
299.21342900000008
  0
ARC
  8
_0-0_0
  6
CONTINUOUS
 62
    7
 10
214.485185
 20
219.3512145
 40
4.5141669999999996
 50
345.76783399999999
 51
123.65284200000004
  0
ARC
  8
_0-0_0
  6
CONTINUOUS
 62
    7
 10
193.10179299999999
 20
220.83265950000001
 40
25.889016999999999
 50
287.96825999999999
 51
354.25557400000002
  0
ARC
  8
_0-0_0
  6
CONTINUOUS
 62
    7
 10
219.181657
 20
148.48044250000001
 40
51.040466000000002
 50
110.76222199999999
 51
181.31928199999999
  0
ARC
  8
_0-0_0
  6
CONTINUOUS
 62
    7
 10
215.99254000000002
 20
153.1225015
 40
48.190212000000002
 50
186.93325999999999
 51
233.06351100000001
  0
ARC
  8
_0-0_0
  6
CONTINUOUS
 62
    7
 10
70.894610999999998
 20
-21.374139499999984
 40
178.82481100000001
 50
36.236170000000008
 51
49.499332000000003
  0
ARC
  8
_0-0_0
  6
CONTINUOUS
 62
    7
 10
207.48855700000001
 20
79.912785500000012
 40
8.8293400000000002
 50
342.31804199999999
 51
30.033128999999963
  0
ARC
  8
_0-0_0
  6
CONTINUOUS
 62
    7
 10
220.38537700000001
 20
75.268925500000009
 40
4.8950490000000002
 50
156.369733
 51
326.39077900000001
  0
ARC
  8
_0-0_0
  6
CONTINUOUS
 62
    7
 10
318.09667899999999
 20
-52.491173500000002
 40
156.22123500000001
 50
122.42108899999999
 51
126.824898
  0
ARC
  8
_0-0_0
  6
CONTINUOUS
 62
    7
 10
226.975022
 20
187.88730150000001
 40
3.3733110000000002
 50
296.38562100000007
 51
17.440227000000043
  0
ARC
  8
_0-0_0
  6
CONTINUOUS
 62
    7
 10
208.30568099999999
 20
221.73916850000001
 40
26.875319999999999
 50
294.01606500000003
 51
339.251192
  0
ARC
  8
_0-0_0
  6
CONTINUOUS
 62
    7
 10
231.66341499999999
 20
182.4744905
 40
3.9859710000000002
 50
143.14179300000001
 51
207.41003100000003
  0
ARC
  8
_0-0_0
  6
CONTINUOUS
 62
    7
 10
226.29476299999999
 20
168.0350985
 40
1.990645
 50
119.51666
 51
201.17114499999997
  0
ARC
  8
_0-0_0
  6
CONTINUOUS
 62
    7
 10
217.94404700000001
 20
164.4021645
 40
7.118214
 50
15.651154999999999
 51
24.165437000000001
  0
ARC
  8
_0-0_0
  6
CONTINUOUS
 62
    7
 10
220.817903
 20
177.91028150000002
 40
9.3017389999999995
 50
298.90535999999997
 51
336.53612299999998
  0
ARC
  8
_0-0_0
  6
CONTINUOUS
 62
    7
 10
211.52498800000001
 20
155.35300050000001
 40
7.5100829999999998
 50
0.780221
 51
119.38629200000003
  0
ARC
  8
_0-0_0
  6
CONTINUOUS
 62
    7
 10
219.23809199999999
 20
147.50699250000002
 40
18.357191
 50
128.38305099999999
 51
223.11922000000004
  0
ARC
  8
_0-0_0
  6
CONTINUOUS
 62
    7
 10
224.76216199999999
 20
132.94864250000001
 40
4.4570169999999996
 50
264.24848800000001
 51
54.805966000000026
  0
ARC
  8
_0-0_0
  6
CONTINUOUS
 62
    7
 10
221.45605599999999
 20
122.78412250000001
 40
6.4037899999999999
 50
63.479157999999998
 51
208.24815000000004
  0
ARC
  8
_0-0_0
  6
CONTINUOUS
 62
    7
 10
219.18505199999998
 20
218.8919095
 40
11.278715999999999
 50
342.88121899999999
 51
119.73940600000003
  0
ARC
  8
_0-0_0
  6
CONTINUOUS
 62
    7
 10
201.51173599999998
 20
223.47271950000001
 40
29.528928000000001
 50
301.32810999999998
 51
344.48091699999998
  0
ARC
  8
_0-0_0
  6
CONTINUOUS
 62
    7
 10
213.052606
 20
227.0480225
 40
1.0733980000000001
 50
113.70269400000001
 51
308.70687299999997
  0
ARC
  8
_0-0_0
  6
CONTINUOUS
 62
    7
 10
218.64260999999999
 20
218.10447950000002
 40
9.4815620000000003
 50
333.44217000000003
 51
121.24990900000003
  0
ARC
  8
_0-0_0
  6
CONTINUOUS
 62
    7
 10
201.27568200000002
 20
225.42050450000002
 40
28.313317999999999
 50
283.89828699999998
 51
335.91319600000003
  0
ARC
  8
_0-0_0
  6
CONTINUOUS
 62
    7
 10
227.789018
 20
141.6421545
 40
59.284655999999998
 50
110.095432
 51
161.81770299999999
  0
ARC
  8
_0-0_0
  6
CONTINUOUS
 62
    7
 10
214.10460799999998
 20
150.73459250000002
 40
43.665370000000003
 50
167.559247
 51
227.52521100000001
  0
ARC
  8
_0-0_0
  6
CONTINUOUS
 62
    7
 10
144.75572399999999
 20
60.174962500000007
 40
70.669393999999997
 50
35.344189
 51
55.661597
  0
ARC
  8
_0-0_0
  6
CONTINUOUS
 62
    7
 10
213.80790100000002
 20
166.5748025
 40
25.7483
 50
55.737644000000003
 51
125.71279200000001
  0
ARC
  8
_0-0_0
  6
CONTINUOUS
 62
    7
 10
227.44334499999999
 20
148.53927950000002
 40
48.354671000000003
 50
126.35692400000003
 51
216.27512500000003
  0
ARC
  8
_0-0_0
  6
CONTINUOUS
 62
    7
 10
225.157388
 20
149.40423950000002
 40
47.754829000000001
 50
125.61040800000001
 51
232.05398199999999
  0
ARC
  8
_0-0_0
  6
CONTINUOUS
 62
    7
 10
211.60650800000002
 20
164.89560250000002
 40
18.289736999999999
 50
39.203792
 51
124.28942499999999
  0
ARC
  8
_0-0_0
  6
CONTINUOUS
 62
    7
 10
229.06274500000001
 20
144.1638835
 40
45.335742000000003
 50
127.75777200000002
 51
216.75818300000003
  0
ARC
  8
_0-0_0
  6
CONTINUOUS
 62
    7
 10
173.776995
 20
89.461247500000013
 40
33.464199000000001
 50
32.625008000000008
 51
55.479518000000006
  0
ARC
  8
_0-0_0
  6
CONTINUOUS
 62
    7
 10
106.78679200000001
 20
15.320745500000015
 40
132.498075
 50
32.675851999999999
 51
44.085096000000007
  0
ARC
  8
_0-0_0
  6
CONTINUOUS
 62
    7
 10
211.12811400000001
 20
155.7351725
 40
22.285587
 50
71.185025999999993
 51
145.59444200000002
  0
ARC
  8
_0-0_0
  6
CONTINUOUS
 62
    7
 10
233.12020200000001
 20
143.2409705
 40
47.537363999999997
 50
148.14820499999999
 51
215.26141500000003
  0
ARC
  8
_0-0_0
  6
CONTINUOUS
 62
    7
 10
210.13522499999999
 20
153.11716050000001
 40
19.824527
 50
46.848536000000003
 51
151.33018500000003
  0
ARC
  8
_0-0_0
  6
CONTINUOUS
 62
    7
 10
232.09414000000001
 20
143.32455850000002
 40
43.832464999999999
 50
153.87084200000001
 51
212.83776399999999
  0
ARC
  8
_0-0_0
  6
CONTINUOUS
 62
    7
 10
-974.3773769999998
 20
-873.78535050000005
 40
1534.533058
 50
39.115476999999998
 51
40.340198999999998
  0
ARC
  8
_0-0_0
  6
CONTINUOUS
 62
    7
 10
208.579095
 20
154.91406649999999
 40
14.954692
 50
29.395968000000003
 51
127.15735000000001
  0
ARC
  8
_0-0_0
  6
CONTINUOUS
 62
    7
 10
230.10682800000001
 20
141.54895450000001
 40
39.663684000000003
 50
140.39790099999999
 51
226.14961099999999
  0
ARC
  8
_0-0_0
  6
CONTINUOUS
 62
    7
 10
209.021501
 20
155.45608850000002
 40
10.554394
 50
10.075616999999999
 51
153.862808
  0
ARC
  8
_0-0_0
  6
CONTINUOUS
 62
    7
 10
231.68617399999999
 20
141.10702950000001
 40
37.335093999999998
 50
149.41178000000002
 51
198.93526900000001
  0
ARC
  8
_0-0_0
  6
CONTINUOUS
 62
    7
 10
219.47066599999999
 20
148.67663950000002
 40
44.912654000000003
 50
141.79158699999999
 51
230.59931500000002
  0
ARC
  8
_0-0_0
  6
CONTINUOUS
 62
    7
 10
221.51630499999999
 20
127.43860250000002
 40
9.1701589999999999
 50
54.227694999999997
 51
157.454319
  0
ARC
  8
_0-0_0
  6
CONTINUOUS
 62
    7
 10
245.62481
 20
122.36462850000001
 40
33.691294999999997
 50
165.228669
 51
213.888766
  0
ARC
  8
_0-0_0
  6
CONTINUOUS
 62
    7
 10
218.21405200000001
 20
133.48904850000002
 40
5.9938599999999997
 50
55.507781000000008
 51
143.815628
  0
ARC
  8
_0-0_0
  6
CONTINUOUS
 62
    7
 10
233.98863299999999
 20
122.71191850000001
 40
25.096063000000001
 50
145.21901
 51
176.97302400000004
  0
ARC
  8
_0-0_0
  6
CONTINUOUS
 62
    7
 10
270.72610500000002
 20
158.1363255
 40
79.862516999999997
 50
201.40350799999999
 51
223.83160899999999
  0
ARC
  8
_0-0_0
  6
CONTINUOUS
 62
    7
 10
271.33694500000001
 20
125.34131250000002
 40
62.422980000000003
 50
181.19713100000004
 51
201.14032700000004
  0
ARC
  8
_0-0_0
  6
CONTINUOUS
 62
    7
 10
222.864824
 20
122.8222695
 40
17.730862999999999
 50
137.15841699999999
 51
206.5959
  0
ARC
  8
_0-0_0
  6
CONTINUOUS
 62
    7
 10
258.17977200000001
 20
143.03946350000001
 40
58.404181999999999
 50
173.04832300000004
 51
208.82103900000004
  0
ARC
  8
_0-0_0
  6
CONTINUOUS
 62
    7
 10
222.952226
 20
84.213292500000009
 40
10.002905999999999
 50
312.65999499999998
 51
41.022070000000014
  0
ARC
  8
_0-0_0
  6
CONTINUOUS
 62
    7
 10
219.14845400000002
 20
217.26332350000001
 40
7.2906599999999999
 50
325.00105399999995
 51
81.854552999999981
  0
ENDSEC
  0
EOF
