  0
SECTION
  2
HEADER
  9
$ACADVER
  1
AC1009
  9
$INSBASE
 10
0
 20
0
 30
0
  9
$EXTMIN
 10
0
 20
0
  9
$EXTMAX
 10
297
 20
210
  9
$LIMMIN
 10
0
 20
0
  9
$LIMMAX
 10
297
 20
210
  9
$LTSCALE
 40
1
  0
ENDSEC
  0
SECTION
  2
TABLES
  0
TABLE
  2
LTYPE
 70
     9
  0
LTYPE
  2
CONTINUOUS
 70
    64
  3
実線
 72
    65
 73
     0
 40
0.0
  0
LTYPE
  2
DASHED1
 70
    64
  3
--  --  --  --  --  --  --  --  
 72
    65
 73
     2
 40
2.5
 49
1.25
 49
-1.25
  0
LTYPE
  2
DASHED2
 70
    64
  3
----    ----    ----    ----    
 72
    65
 73
     2
 40
5.0
 49
2.5
 49
-2.5
  0
LTYPE
  2
DASHED3
 70
    64
  3
------  ------  ------  ------  
 72
    65
 73
     2
 40
5.0
 49
3.75
 49
-1.25
  0
LTYPE
  2
CENTER1
 70
    64
  3
----- - ----- - ----- - ----- - 
 72
    65
 73
     4
 40
10.0
 49
6.25
 49
-1.25
 49
1.25
 49
-1.25
  0
LTYPE
  2
CENTER2
 70
    64
  3
----------  --  ----------  --  
 72
    65
 73
     4
 40
20.0
 49
12.5
 49
-2.5
 49
2.5
 49
-2.5
  0
LTYPE
  2
PHANTOM1
 70
    64
  3
--- - - --- - - --- - - --- - - 
 72
    65
 73
     6
 40
10.0
 49
3.25
 49
-1.25
 49
1.25
 49
-1.25
 49
1.25
 49
-1.25
  0
LTYPE
  2
PHANTOM2
 70
    64
  3
--------  -  -  --------  -  -  
 72
    65
 73
     6
 40
20.0
 49
10.0
 49
-2.5
 49
1.25
 49
-2.5
 49
1.25
 49
-2.5
  0
LTYPE
  2
DOT
 70
    64
  3
-   -   -   -   -   -   -   -   
 72
    65
 73
     2
 40
2.5
 49
0.625
 49
-1.875
  0
LTYPE
  2
DUMMY
 70
    64
  3
ダミー
 72
    65
 73
     0
 40
0.0
  0
LTYPE
  2
RAND1
 70
    64
  3
ランダム線1
 72
    65
 73
     4
 40
10.0
 49
1.0
 49
-2.0
 49
3.0
 49
-4.0
  0
LTYPE
  2
RAND2
 70
    64
  3
ランダム線2
 72
    65
 73
     4
 40
14.0
 49
2.0
 49
-3.0
 49
4.0
 49
-5.0
  0
LTYPE
  2
RAND3
 70
    64
  3
ランダム線3
 72
    65
 73
     4
 40
18.0
 49
3.0
 49
-4.0
 49
5.0
 49
-6.0
  0
LTYPE
  2
RAND4
 70
    64
  3
ランダム線4
 72
    65
 73
     4
 40
22.0
 49
4.0
 49
-5.0
 49
6.0
 49
-7.0
  0
LTYPE
  2
RAND5
 70
    64
  3
ランダム線5
 72
    65
 73
     4
 40
26.0
 49
5.0
 49
-6.0
 49
7.0
 49
-8.0
  0
LTYPE
  2
LONG1
 70
    64
  3
----------  --  ----------  --  
 72
    65
 73
     4
 40
40.0
 49
32.5
 49
-2.5
 49
2.5
 49
-2.5
  0
LTYPE
  2
LONG2
 70
    64
  3
--------  -  -  --------  -  -  
 72
    65
 73
     6
 40
40.0
 49
30.0
 49
-2.5
 49
1.25
 49
-2.5
 49
1.25
 49
-2.5
  0
LTYPE
  2
LONG3
 70
    64
  3
+++++++++++++++..+++++++++++++++
 72
    65
 73
     2
 40
40.0
 49
37.5
 49
-2.5
  0
LTYPE
  2
LONG4
 70
    64
  3
+++++++++++++++..+++++++++++++++
 72
    65
 73
     2
 40
80.0
 49
75.0
 49
-5.0
  0
LTYPE
  2
LONG5
 70
    64
  3
----------  --  ----------  --  
 72
    65
 73
     4
 40
60.0
 49
37.5
 49
-7.5
 49
7.5
 49
-7.5
  0
LTYPE
  2
dashed
 70
   64
  3
-------   -------------   ------
 72
   65
 73
    2
 40
7.5
 49
6
 49
-1.5
  0
LTYPE
  2
dashed_spaced
 70
   64
  3
----        --------        ----
 72
   65
 73
    2
 40
12
 49
6
 49
-6
  0
LTYPE
  2
long_dashed_dotted
 70
   64
  3
------------- --- --------------
 72
   65
 73
    4
 40
15.25
 49
12
 49
-1.5
 49
0.25
 49
-1.5
  0
LTYPE
  2
long_dashed_double-dotted
 70
   64
  3
----------- --- --- ------------
 72
   65
 73
    6
 40
17
 49
12
 49
-1.5
 49
0.25
 49
-1.5
 49
0.25
 49
-1.5
  0
LTYPE
  2
long_dashed_triplicate-dotted
 70
   64
  3
--------- --- --- --- ----------
 72
   65
 73
    8
 40
18.75
 49
12
 49
-1.5
 49
0.25
 49
-1.5
 49
0.25
 49
-1.5
 49
0.25
 49
-1.5
  0
LTYPE
  2
dotted
 70
   64
  3
   -       -       -       -    
 72
   65
 73
    2
 40
1.75
 49
0.25
 49
-1.5
  0
LTYPE
  2
chain
 70
   64
  3
-------------- -- --------------
 72
   65
 73
    4
 40
18.5
 49
12
 49
-1.5
 49
3.5
 49
-1.5
  0
LTYPE
  2
chain_double_dash
 70
   64
  3
------------ -- -- -------------
 72
   65
 73
    6
 40
23.5
 49
12
 49
-1.5
 49
3.5
 49
-1.5
 49
3.5
 49
-1.5
  0
LTYPE
  2
dashed_dotted
 70
   64
  3
-----------     -     ----------
 72
   65
 73
    4
 40
9.25
 49
6
 49
-1.5
 49
0.25
 49
-1.5
  0
LTYPE
  2
double-dashed_dotted
 70
   64
  3
------   -----------   -   -----
 72
   65
 73
    6
 40
16.75
 49
6
 49
-1.5
 49
6
 49
-1.5
 49
0.25
 49
-1.5
  0
LTYPE
  2
dashed_double-dotted
 70
   64
  3
---------    -    -    ---------
 72
   65
 73
    6
 40
11
 49
6
 49
-1.5
 49
0.25
 49
-1.5
 49
0.25
 49
-1.5
  0
LTYPE
  2
double-dashed_double-dotted
 70
   64
  3
-----   ---------   -   -   ----
 72
   65
 73
    8
 40
18.5
 49
6
 49
-1.5
 49
6
 49
-1.5
 49
0.25
 49
-1.5
 49
0.25
 49
-1.5
  0
LTYPE
  2
dashed_triplicate-dotted
 70
   64
  3
-------    -    -    -    ------
 72
   65
 73
    8
 40
12.75
 49
6
 49
-1.5
 49
0.25
 49
-1.5
 49
0.25
 49
-1.5
 49
0.25
 49
-1.5
  0
LTYPE
  2
double-dashed_triplicate-dotted
 70
   64
  3
-----  ---------  -  -  -  -----
 72
   65
 73
   10
 40
20.25
 49
6
 49
-1.5
 49
6
 49
-1.5
 49
0.25
 49
-1.5
 49
0.25
 49
-1.5
 49
0.25
 49
-1.5
  0
LTYPE
  2
undefined
 70
   64
  3
--------------------------------
 72
   65
 73
    0
 40
0
  0
LTYPE
  2
BORDER
 70
   64
  3
----     --------     -     ----
 72
   65
 73
    0
 40
0
  0
LTYPE
  2
BORDER2
 70
   64
  3
----     --------     -     ----
 72
   65
 73
    0
 40
0
  0
LTYPE
  2
BORDERX2
 70
   64
  3
----     --------     -     ----
 72
   65
 73
    0
 40
0
  0
LTYPE
  2
CENTER
 70
   64
  3
----------    ----    ----------
 72
   65
 73
    0
 40
0
  0
LTYPE
  2
CENTER2_21
 70
   64
  3
----------    ----    ----------
 72
   65
 73
    0
 40
0
  0
LTYPE
  2
CENTERX2
 70
   64
  3
----------    ----    ----------
 72
   65
 73
    0
 40
0
  0
LTYPE
  2
DASHDOT
 70
   64
  3
--------        -        -------
 72
   65
 73
    0
 40
0
  0
LTYPE
  2
DASHDOT2
 70
   64
  3
--------        -        -------
 72
   65
 73
    0
 40
0
  0
LTYPE
  2
DASHDOTX2
 70
   64
  3
--------        -        -------
 72
   65
 73
    0
 40
0
  0
LTYPE
  2
DASHED
 70
   64
  3
------     -----------     -----
 72
   65
 73
    0
 40
0
  0
LTYPE
  2
DASHED2_27
 70
   64
  3
------     -----------     -----
 72
   65
 73
    0
 40
0
  0
LTYPE
  2
DASHEDX2
 70
   64
  3
------     -----------     -----
 72
   65
 73
    0
 40
0
  0
LTYPE
  2
DIVIDE
 70
   64
  3
------      -      -      ------
 72
   65
 73
    0
 40
0
  0
LTYPE
  2
DIVIDE2
 70
   64
  3
------      -      -      ------
 72
   65
 73
    0
 40
0
  0
LTYPE
  2
DIVIDEX2
 70
   64
  3
------      -      -      ------
 72
   65
 73
    0
 40
0
  0
LTYPE
  2
DOT_32
 70
   64
  3
-               -               
 72
   65
 73
    0
 40
0
  0
ENDTAB
  0
TABLE
  2
STYLE
  5
3
100
AcDbSymbolTable
 70
     1
  0
STYLE
  5
10
100
AcDbSymbolTableRecord
100
AcDbTextStyleTableRecord
  2
STANDARD
 70
     0
 40
0.0
 41
1.0
 50
0.0
 71
     0
 42
0.2
  3
txt
  4
bigfont.shx
  0
STYLE
  5
26
100
AcDbSymbolTableRecord
100
AcDbTextStyleTableRecord
  2
TATEGAKI
 70
    68
 40
0.0
 41
1.0
 50
0.0
 71
     0
 42
1.0
  3
txt
  4
bigfont.shx
  0
ENDTAB
  0
TABLE
  2
LAYER
 70
    2
  0
LAYER
  2
_0-0_0
 70
   64
 62
    7
  6
CONTINUOUS
  0
LAYER
  2
ADD_LINE
 70
   64
 62
    7
  6
CONTINUOUS
  0
ENDTAB
  0
ENDSEC
  0
SECTION
  2
BLOCKS
  0
ENDSEC
  0
SECTION
  2
ENTITIES
  0
LINE
  8
_0-0_0
  6
CONTINUOUS
 62
    7
 10
113.32588749999999
 20
99.005278499999989
 11
114.62941549999999
 21
97.842306499999992
  0
LINE
  8
_0-0_0
  6
CONTINUOUS
 62
    7
 10
114.62941549999999
 20
97.842306499999992
 11
113.7643875
 21
99.189680499999994
  0
LINE
  8
_0-0_0
  6
CONTINUOUS
 62
    7
 10
114.16446449999999
 20
99.438322499999984
 11
115.4499185
 21
98.557310499999986
  0
LINE
  8
_0-0_0
  6
CONTINUOUS
 62
    7
 10
116.0328275
 20
100.13233849999999
 11
114.57743649999999
 21
100.6685165
  0
LINE
  8
_0-0_0
  6
CONTINUOUS
 62
    7
 10
114.5796795
 20
101.3755025
 11
115.74926549999999
 21
101.60815249999999
  0
LINE
  8
_0-0_0
  6
CONTINUOUS
 62
    7
 10
115.4499185
 20
98.557310499999986
 11
114.3687645
 21
99.739790499999984
  0
LINE
  8
_0-0_0
  6
CONTINUOUS
 62
    7
 10
114.53051549999999
 20
100.33561549999999
 11
116.0328275
 21
100.13233849999999
  0
LINE
  8
_0-0_0
  6
CONTINUOUS
 62
    7
 10
115.74926549999999
 20
101.60815249999999
 11
114.50224849999999
 21
101.87017649999999
  0
LINE
  8
_0-0_0
  6
CONTINUOUS
 62
    7
 10
114.17118649999999
 20
102.7817525
 11
115.25525449999999
 21
103.45025449999999
  0
LINE
  8
_0-0_0
  6
CONTINUOUS
 62
    7
 10
115.25525449999999
 20
103.45025449999999
 11
113.99480949999999
 21
103.08827049999999
  0
LINE
  8
_0-0_0
  6
CONTINUOUS
 62
    7
 10
115.10529849999999
 20
104.60422349999999
 11
113.30792749999999
 21
103.89151649999999
  0
LINE
  8
_0-0_0
  6
CONTINUOUS
 62
    7
 10
113.7326415
 20
103.4500255
 11
115.10529849999999
 21
104.60422349999999
  0
LINE
  8
_0-0_0
  6
CONTINUOUS
 62
    7
 10
111.53922849999999
 20
104.82691849999999
 11
112.28818349999999
 21
105.35521549999999
  0
LINE
  8
_0-0_0
  6
CONTINUOUS
 62
    7
 10
112.28818349999999
 20
105.35521549999999
 11
111.18121149999999
 21
104.97762149999998
  0
LINE
  8
_0-0_0
  6
CONTINUOUS
 62
    7
 10
110.63753349999999
 20
105.21990849999999
 11
111.19228949999999
 21
105.69996449999999
  0
LINE
  8
_0-0_0
  6
CONTINUOUS
 62
    7
 10
111.19228949999999
 20
105.69996449999999
 11
109.9379405
 21
105.5563495
  0
LINE
  8
_0-0_0
  6
CONTINUOUS
 62
    7
 10
109.52706749999999
 20
105.76737049999998
 11
110.23171049999999
 21
106.21104249999999
  0
LINE
  8
_0-0_0
  6
CONTINUOUS
 62
    7
 10
110.23171049999999
 20
106.21104249999999
 11
109.06887649999999
 21
106.01487549999999
  0
LINE
  8
_0-0_0
  6
CONTINUOUS
 62
    7
 10
108.4946265
 20
106.34389349999999
 11
109.07887849999999
 21
106.78882449999999
  0
LINE
  8
_0-0_0
  6
CONTINUOUS
 62
    7
 10
109.07887849999999
 20
106.78882449999999
 11
107.6002635
 21
106.90038949999999
  0
LINE
  8
_0-0_0
  6
CONTINUOUS
 62
    7
 10
106.80468549999999
 20
107.44384649999999
 11
107.5721265
 21
107.98263349999999
  0
LINE
  8
_0-0_0
  6
CONTINUOUS
 62
    7
 10
107.5721265
 20
107.98263349999999
 11
106.1847365
 21
107.9015795
  0
LINE
  8
_0-0_0
  6
CONTINUOUS
 62
    7
 10
105.5982645
 20
108.36442449999998
 11
106.1027125
 21
108.8435655
  0
LINE
  8
_0-0_0
  6
CONTINUOUS
 62
    7
 10
106.1027125
 20
108.8435655
 11
105.09237449999999
 21
108.78872549999998
  0
LINE
  8
_0-0_0
  6
CONTINUOUS
 62
    7
 10
101.2765565
 20
124.2009865
 11
102.66811949999999
 21
122.9475995
  0
LINE
  8
_0-0_0
  6
CONTINUOUS
 62
    7
 10
102.66811949999999
 20
122.9475995
 11
101.28524549999999
 21
123.4979845
  0
LINE
  8
_0-0_0
  6
CONTINUOUS
 62
    7
 10
101.2030855
 20
123.13081149999999
 11
102.63601449999999
 21
122.0212075
  0
LINE
  8
_0-0_0
  6
CONTINUOUS
 62
    7
 10
102.63601449999999
 20
122.0212075
 11
101.1081375
 21
122.2350295
  0
LINE
  8
_0-0_0
  6
CONTINUOUS
 62
    7
 10
101.12556249999999
 20
121.92272749999998
 11
103.23864549999999
 21
120.9723035
  0
LINE
  8
_0-0_0
  6
CONTINUOUS
 62
    7
 10
103.23864549999999
 20
120.9723035
 11
101.37594449999999
 21
120.96105049999998
  0
LINE
  8
_0-0_0
  6
CONTINUOUS
 62
    7
 10
101.5027825
 20
120.60747349999998
 11
102.49467249999999
 21
120.12409849999999
  0
LINE
  8
_0-0_0
  6
CONTINUOUS
 62
    7
 10
102.49467249999999
 20
120.12409849999999
 11
101.6650825
 21
119.92689349999999
  0
LINE
  8
_0-0_0
  6
CONTINUOUS
 62
    7
 10
101.71346849999999
 20
119.34855449999999
 11
103.42207149999999
 21
118.37598249999999
  0
LINE
  8
_0-0_0
  6
CONTINUOUS
 62
    7
 10
103.42207149999999
 20
118.37598249999999
 11
101.90614149999999
 21
118.57754349999999
  0
LINE
  8
_0-0_0
  6
CONTINUOUS
 62
    7
 10
101.66995849999999
 20
114.14730649999998
 11
102.9772325
 21
114.99794649999998
  0
LINE
  8
_0-0_0
  6
CONTINUOUS
 62
    7
 10
102.9772325
 20
114.99794649999998
 11
102.09262649999999
 21
113.93415649999999
  0
LINE
  8
_0-0_0
  6
CONTINUOUS
 62
    7
 10
102.35160649999999
 20
113.84748649999999
 11
103.79432449999999
 21
114.7366165
  0
LINE
  8
_0-0_0
  6
CONTINUOUS
 62
    7
 10
103.79432449999999
 20
114.7366165
 11
102.8856945
 21
113.69889649999999
  0
LINE
  8
_0-0_0
  6
CONTINUOUS
 62
    7
 10
103.51794249999999
 20
113.1912445
 11
104.2423685
 21
113.5103135
  0
LINE
  8
_0-0_0
  6
CONTINUOUS
 62
    7
 10
104.2423685
 20
113.5103135
 11
103.62437249999999
 21
113.04614849999999
  0
LINE
  8
_0-0_0
  6
CONTINUOUS
 62
    7
 10
103.88929549999999
 20
111.80092449999999
 11
104.5908795
 21
111.34101749999999
  0
LINE
  8
_0-0_0
  6
CONTINUOUS
 62
    7
 10
104.5908795
 20
111.34101749999999
 11
103.78875549999999
 21
111.61190649999999
  0
LINE
  8
_0-0_0
  6
CONTINUOUS
 62
    7
 10
103.70647249999999
 20
125.22384449999998
 11
104.2915405
 21
124.85468849999998
  0
LINE
  8
_0-0_0
  6
CONTINUOUS
 62
    7
 10
104.2915405
 20
124.85468849999998
 11
104.21382749999999
 21
125.13755649999999
  0
LINE
  8
_0-0_0
  6
CONTINUOUS
 62
    7
 10
104.83681249999999
 20
125.11308149999999
 11
105.81788449999999
 21
123.76072549999998
  0
LINE
  8
_0-0_0
  6
CONTINUOUS
 62
    7
 10
105.81788449999999
 20
123.76072549999998
 11
105.22176949999999
 21
125.18293549999999
  0
LINE
  8
_0-0_0
  6
CONTINUOUS
 62
    7
 10
105.8532465
 20
125.4592725
 11
107.0521835
 21
124.4698775
  0
LINE
  8
_0-0_0
  6
CONTINUOUS
 62
    7
 10
107.0521835
 20
124.4698775
 11
106.2206475
 21
125.74535949999998
  0
LINE
  8
_0-0_0
  6
CONTINUOUS
 62
    7
 10
106.3899665
 20
125.92503149999999
 11
107.9467375
 21
124.3416115
  0
LINE
  8
_0-0_0
  6
CONTINUOUS
 62
    7
 10
107.9467375
 20
124.3416115
 11
106.83033549999999
 21
126.60194249999998
  0
LINE
  8
_0-0_0
  6
CONTINUOUS
 62
    7
 10
110.6110595
 20
126.76405149999999
 11
110.76663749999999
 21
124.38944849999999
  0
LINE
  8
_0-0_0
  6
CONTINUOUS
 62
    7
 10
110.76663749999999
 20
124.38944849999999
 11
111.24300149999999
 21
126.27766249999999
  0
LINE
  8
_0-0_0
  6
CONTINUOUS
 62
    7
 10
111.5138305
 20
126.15983349999999
 11
111.50628449999999
 21
123.99503949999999
  0
LINE
  8
_0-0_0
  6
CONTINUOUS
 62
    7
 10
111.50628449999999
 20
123.99503949999999
 11
112.08544749999999
 21
126.0362375
  0
LINE
  8
_0-0_0
  6
CONTINUOUS
 62
    7
 10
117.21937349999999
 20
127.14759649999999
 11
117.22878849999999
 21
125.73267949999999
  0
LINE
  8
_0-0_0
  6
CONTINUOUS
 62
    7
 10
117.22878849999999
 20
125.73267949999999
 11
117.45806649999999
 21
126.79865849999999
  0
LINE
  8
_0-0_0
  6
CONTINUOUS
 62
    7
 10
118.05646349999999
 20
125.92504749999998
 11
118.41678449999999
 21
124.20071249999998
  0
LINE
  8
_0-0_0
  6
CONTINUOUS
 62
    7
 10
118.41678449999999
 20
124.20071249999998
 11
118.34009349999999
 21
125.62675249999998
  0
LINE
  8
_0-0_0
  6
CONTINUOUS
 62
    7
 10
119.9304485
 20
125.0498795
 11
120.9273355
 21
123.84936349999998
  0
LINE
  8
_0-0_0
  6
CONTINUOUS
 62
    7
 10
120.9273355
 20
123.84936349999998
 11
120.28822149999999
 21
125.20144449999998
  0
LINE
  8
_0-0_0
  6
CONTINUOUS
 62
    7
 10
120.60239949999999
 20
125.30080949999999
 11
121.52427449999999
 21
123.92658849999998
  0
LINE
  8
_0-0_0
  6
CONTINUOUS
 62
    7
 10
121.52427449999999
 20
123.92658849999998
 11
120.9820915
 21
125.38250549999998
  0
LINE
  8
_0-0_0
  6
CONTINUOUS
 62
    7
 10
121.04435549999999
 20
125.3920885
 11
121.73533449999999
 21
123.73780649999998
  0
LINE
  8
_0-0_0
  6
CONTINUOUS
 62
    7
 10
121.73533449999999
 20
123.73780649999998
 11
121.52741049999999
 21
125.43108949999998
  0
LINE
  8
_0-0_0
  6
CONTINUOUS
 62
    7
 10
138.35947149999998
 20
80.738722499999994
 11
139.14688649999999
 21
79.654234499999987
  0
LINE
  8
_0-0_0
  6
CONTINUOUS
 62
    7
 10
139.60896049999999
 20
79.944540499999988
 11
139.33395150000001
 21
81.453612499999991
  0
LINE
  8
_0-0_0
  6
CONTINUOUS
 62
    7
 10
139.33395150000001
 20
81.453612499999991
 11
140.0304385
 21
80.157248499999994
  0
LINE
  8
_0-0_0
  6
CONTINUOUS
 62
    7
 10
137.9432195
 20
78.768797499999991
 11
137.36678849999998
 21
80.323408499999985
  0
LINE
  8
_0-0_0
  6
CONTINUOUS
 62
    7
 10
137.36678849999998
 20
80.323408499999985
 11
138.40884949999997
 21
79.135153499999987
  0
LINE
  8
_0-0_0
  6
CONTINUOUS
 62
    7
 10
138.80854549999998
 20
79.425139499999986
 11
138.35947149999998
 21
80.738722499999994
  0
LINE
  8
_0-0_0
  6
CONTINUOUS
 62
    7
 10
136.9036155
 20
79.968718499999994
 11
137.6849345
 21
78.551215499999984
  0
LINE
  8
_0-0_0
  6
CONTINUOUS
 62
    7
 10
136.8722515
 20
77.796957499999991
 11
136.9036155
 21
79.968718499999994
  0
LINE
  8
_0-0_0
  6
CONTINUOUS
 62
    7
 10
134.9651465
 20
78.788557499999996
 11
134.92299449999999
 21
76.930792499999995
  0
LINE
  8
_0-0_0
  6
CONTINUOUS
 62
    7
 10
133.90006749999998
 20
76.938658499999988
 11
134.9651465
 21
78.788557499999996
  0
LINE
  8
_0-0_0
  6
CONTINUOUS
 62
    7
 10
133.62964349999999
 20
79.416411499999995
 11
133.35226249999999
 21
77.061003499999984
  0
LINE
  8
_0-0_0
  6
CONTINUOUS
 62
    7
 10
132.75178249999999
 20
77.301710499999984
 11
133.62964349999999
 21
79.416411499999995
  0
LINE
  8
_0-0_0
  6
CONTINUOUS
 62
    7
 10
131.98192349999999
 20
77.800284499999989
 11
133.16139749999999
 21
80.365355499999993
  0
LINE
  8
_0-0_0
  6
CONTINUOUS
 62
    7
 10
122.6924035
 20
78.048773499999996
 11
122.12178549999999
 21
76.515814499999991
  0
LINE
  8
_0-0_0
  6
CONTINUOUS
 62
    7
 10
121.55824849999999
 20
78.460120499999988
 11
120.9707545
 21
76.822920499999995
  0
LINE
  8
_0-0_0
  6
CONTINUOUS
 62
    7
 10
121.6716515
 20
76.683005499999993
 11
122.6924035
 21
78.048773499999996
  0
LINE
  8
_0-0_0
  6
CONTINUOUS
 62
    7
 10
120.62543249999999
 20
78.654974499999994
 11
119.57887849999999
 21
76.705565499999992
  0
LINE
  8
_0-0_0
  6
CONTINUOUS
 62
    7
 10
120.1709805
 20
76.819655499999996
 11
121.55824849999999
 21
78.460120499999988
  0
LINE
  8
_0-0_0
  6
CONTINUOUS
 62
    7
 10
118.57877149999999
 20
76.263960499999996
 11
120.62543249999999
 21
78.654974499999994
  0
LINE
  8
_0-0_0
  6
CONTINUOUS
 62
    7
 10
117.94224349999999
 20
79.172865499999986
 11
115.30311349999999
 21
77.596892499999996
  0
LINE
  8
_0-0_0
  6
CONTINUOUS
 62
    7
 10
115.12827849999999
 20
78.301962499999988
 11
117.94224349999999
 21
79.172865499999986
  0
LINE
  8
_0-0_0
  6
CONTINUOUS
 62
    7
 10
117.67532949999999
 20
79.905325499999989
 11
115.1060165
 21
78.626334499999984
  0
LINE
  8
_0-0_0
  6
CONTINUOUS
 62
    7
 10
114.9854335
 20
79.177489499999993
 11
117.67532949999999
 21
79.905325499999989
  0
LINE
  8
_0-0_0
  6
CONTINUOUS
 62
    7
 10
113.8701765
 20
81.572371499999988
 11
112.3226145
 21
80.042479499999985
  0
LINE
  8
_0-0_0
  6
CONTINUOUS
 62
    7
 10
113.4864635
 20
81.92768749999999
 11
111.29802549999999
 21
80.611220499999988
  0
LINE
  8
_0-0_0
  6
CONTINUOUS
 62
    7
 10
111.45391649999999
 20
80.505545499999997
 11
113.8701765
 21
81.572371499999988
  0
LINE
  8
_0-0_0
  6
CONTINUOUS
 62
    7
 10
110.83567649999999
 20
80.974226499999986
 11
113.4864635
 21
81.92768749999999
  0
LINE
  8
_0-0_0
  6
CONTINUOUS
 62
    7
 10
112.0375725
 20
83.154738499999993
 11
109.84568549999999
 21
82.684172499999988
  0
LINE
  8
_0-0_0
  6
CONTINUOUS
 62
    7
 10
109.90633949999999
 20
83.467451499999996
 11
112.0375725
 21
83.154738499999993
  0
LINE
  8
_0-0_0
  6
CONTINUOUS
 62
    7
 10
112.20374849999999
 20
83.892416499999996
 11
109.99989149999999
 21
83.796339499999988
  0
LINE
  8
_0-0_0
  6
CONTINUOUS
 62
    7
 10
110.26285349999999
 20
87.538496499999994
 11
109.3595105
 21
85.677321499999991
  0
LINE
  8
_0-0_0
  6
CONTINUOUS
 62
    7
 10
110.26639349999999
 20
84.352553499999985
 11
112.20374849999999
 21
83.892416499999996
  0
LINE
  8
_0-0_0
  6
CONTINUOUS
 62
    7
 10
109.6281185
 20
87.661009499999992
 11
108.4815955
 21
86.261320499999997
  0
LINE
  8
_0-0_0
  6
CONTINUOUS
 62
    7
 10
108.6402035
 20
86.135542499999985
 11
110.26285349999999
 21
87.538496499999994
  0
LINE
  8
_0-0_0
  6
CONTINUOUS
 62
    7
 10
108.08013749999999
 20
86.630507499999993
 11
109.6281185
 21
87.661009499999992
  0
LINE
  8
_0-0_0
  6
CONTINUOUS
 62
    7
 10
109.94009949999999
 20
88.814634499999997
 11
107.4029295
 21
89.432409499999991
  0
LINE
  8
_0-0_0
  6
CONTINUOUS
 62
    7
 10
110.67358249999999
 20
89.413206499999987
 11
107.92412349999999
 21
90.187544499999987
  0
LINE
  8
_0-0_0
  6
CONTINUOUS
 62
    7
 10
107.75446149999999
 20
89.967405499999984
 11
109.94009949999999
 21
88.814634499999997
  0
LINE
  8
_0-0_0
  6
CONTINUOUS
 62
    7
 10
109.03925149999999
 20
92.659643499999987
 11
108.50639149999999
 21
92.236670499999988
  0
LINE
  8
_0-0_0
  6
CONTINUOUS
 62
    7
 10
108.51047349999999
 20
90.816923499999987
 11
110.67358249999999
 21
89.413206499999987
  0
LINE
  8
_0-0_0
  6
CONTINUOUS
 62
    7
 10
108.12111449999999
 20
92.625044499999987
 11
109.03925149999999
 21
92.659643499999987
  0
LINE
  8
_0-0_0
  6
CONTINUOUS
 62
    7
 10
173.81921849999998
 20
113.07675049999999
 11
174.3173535
 21
112.26931649999999
  0
LINE
  8
_0-0_0
  6
CONTINUOUS
 62
    7
 10
165.1480115
 20
115.68708649999999
 11
166.11468249999999
 21
115.2554385
  0
LINE
  8
_0-0_0
  6
CONTINUOUS
 62
    7
 10
165.7975055
 20
116.17490949999998
 11
166.89947649999999
 21
115.7604425
  0
LINE
  8
_0-0_0
  6
CONTINUOUS
 62
    7
 10
166.62502050000001
 20
115.57681149999999
 11
165.1480115
 21
115.68708649999999
  0
LINE
  8
_0-0_0
  6
CONTINUOUS
 62
    7
 10
167.24548849999999
 20
117.0068345
 11
168.0501075
 21
116.62087849999999
  0
LINE
  8
_0-0_0
  6
CONTINUOUS
 62
    7
 10
167.52640249999999
 20
116.21023349999999
 11
165.7975055
 21
116.17490949999998
  0
LINE
  8
_0-0_0
  6
CONTINUOUS
 62
    7
 10
167.78374149999999
 20
117.74606949999999
 11
168.78431749999999
 21
117.2564685
  0
LINE
  8
_0-0_0
  6
CONTINUOUS
 62
    7
 10
168.4723175
 20
116.97730049999998
 11
167.24548849999999
 21
117.0068345
  0
LINE
  8
_0-0_0
  6
CONTINUOUS
 62
    7
 10
168.15962350000001
 20
118.36335549999998
 11
169.68084449999998
 21
118.14289649999999
  0
LINE
  8
_0-0_0
  6
CONTINUOUS
 62
    7
 10
169.40436249999999
 20
117.8551775
 11
167.78374149999999
 21
117.74606949999999
  0
LINE
  8
_0-0_0
  6
CONTINUOUS
 62
    7
 10
169.20936649999999
 20
119.31046849999998
 11
170.36542649999998
 21
118.9187755
  0
LINE
  8
_0-0_0
  6
CONTINUOUS
 62
    7
 10
170.00724149999999
 20
118.5008685
 11
168.15962350000001
 21
118.36335549999998
  0
LINE
  8
_0-0_0
  6
CONTINUOUS
 62
    7
 10
169.8602645
 20
120.20042249999999
 11
170.9693005
 21
119.69177049999999
  0
LINE
  8
_0-0_0
  6
CONTINUOUS
 62
    7
 10
170.6396345
 20
119.25832949999999
 11
169.20936649999999
 21
119.31046849999998
  0
LINE
  8
_0-0_0
  6
CONTINUOUS
 62
    7
 10
171.31139450000001
 20
120.17449749999999
 11
169.8602645
 21
120.20042249999999
  0
LINE
  8
_0-0_0
  6
CONTINUOUS
 62
    7
 10
169.63200449999999
 20
122.6205885
 11
171.24086449999999
 21
122.27564849999999
  0
LINE
  8
_0-0_0
  6
CONTINUOUS
 62
    7
 10
169.16287349999999
 20
123.84170349999999
 11
170.67205949999999
 21
123.4250625
  0
LINE
  8
_0-0_0
  6
CONTINUOUS
 62
    7
 10
171.0074285
 20
122.83425749999998
 11
169.63200449999999
 21
122.6205885
  0
LINE
  8
_0-0_0
  6
CONTINUOUS
 62
    7
 10
170.22017349999999
 20
124.01946849999999
 11
169.16287349999999
 21
123.84170349999999
  0
LINE
  8
_0-0_0
  6
CONTINUOUS
 62
    7
 10
170.53022049999998
 20
130.13122349999998
 11
171.02166449999999
 21
130.62226649999999
  0
LINE
  8
_0-0_0
  6
CONTINUOUS
 62
    7
 10
169.1956835
 20
129.67980749999998
 11
170.43519649999999
 21
130.66370949999998
  0
LINE
  8
_0-0_0
  6
CONTINUOUS
 62
    7
 10
170.8178145
 20
130.63847149999998
 11
170.53022049999998
 21
130.13122349999998
  0
LINE
  8
_0-0_0
  6
CONTINUOUS
 62
    7
 10
169.13160049999999
 20
132.73895049999999
 11
170.21067549999998
 21
132.37335049999999
  0
LINE
  8
_0-0_0
  6
CONTINUOUS
 62
    7
 10
170.06129149999998
 20
130.67614549999999
 11
169.1956835
 21
129.67980749999998
  0
LINE
  8
_0-0_0
  6
CONTINUOUS
 62
    7
 10
170.70760849999999
 20
132.92529149999999
 11
169.13160049999999
 21
132.73895049999999
  0
LINE
  8
_0-0_0
  6
CONTINUOUS
 62
    7
 10
170.25683649999999
 20
133.90144149999998
 11
171.16866349999998
 21
133.52862349999998
  0
LINE
  8
_0-0_0
  6
CONTINUOUS
 62
    7
 10
171.61938549999999
 20
134.2367385
 11
170.25683649999999
 21
133.90144149999998
  0
LINE
  8
_0-0_0
  6
CONTINUOUS
 62
    7
 10
171.20811549999999
 20
135.19331149999999
 11
171.96569549999998
 21
134.8990455
  0
LINE
  8
_0-0_0
  6
CONTINUOUS
 62
    7
 10
172.1719445
 20
135.36808549999998
 11
171.20811549999999
 21
135.19331149999999
  0
LINE
  8
_0-0_0
  6
CONTINUOUS
 62
    7
 10
171.39906049999999
 20
136.36366049999998
 11
172.4121825
 21
136.02787549999999
  0
LINE
  8
_0-0_0
  6
CONTINUOUS
 62
    7
 10
172.5511175
 20
136.5019355
 11
171.39906049999999
 21
136.36366049999998
  0
LINE
  8
_0-0_0
  6
CONTINUOUS
 62
    7
 10
171.37630150000001
 20
136.9812445
 11
172.6165135
 21
136.76446349999998
  0
LINE
  8
_0-0_0
  6
CONTINUOUS
 62
    7
 10
172.7745525
 20
137.61785649999999
 11
171.37630150000001
 21
136.9812445
  0
LINE
  8
_0-0_0
  6
CONTINUOUS
 62
    7
 10
167.67487449999999
 20
136.54595749999999
 11
168.5798805
 21
137.6775035
  0
LINE
  8
_0-0_0
  6
CONTINUOUS
 62
    7
 10
166.85442449999999
 20
137.0492385
 11
167.9582565
 21
137.87829349999998
  0
LINE
  8
_0-0_0
  6
CONTINUOUS
 62
    7
 10
168.29306549999998
 20
137.72694149999998
 11
167.67487449999999
 21
136.54595749999999
  0
LINE
  8
_0-0_0
  6
CONTINUOUS
 62
    7
 10
167.71583249999998
 20
138.0772375
 11
166.85442449999999
 21
137.0492385
  0
LINE
  8
_0-0_0
  6
CONTINUOUS
 62
    7
 10
167.19118950000001
 20
140.7400035
 11
167.8466885
 21
139.9567395
  0
LINE
  8
_0-0_0
  6
CONTINUOUS
 62
    7
 10
168.2644435
 20
140.6429425
 11
167.19118950000001
 21
140.7400035
  0
LINE
  8
_0-0_0
  6
CONTINUOUS
 62
    7
 10
167.70588049999998
 20
141.86703249999999
 11
168.55766749999998
 21
141.2111645
  0
LINE
  8
_0-0_0
  6
CONTINUOUS
 62
    7
 10
168.75101549999999
 20
141.64164549999998
 11
167.70588049999998
 21
141.86703249999999
  0
LINE
  8
_0-0_0
  6
CONTINUOUS
 62
    7
 10
168.21997149999999
 20
142.8217295
 11
168.9862225
 21
142.25333949999998
  0
LINE
  8
_0-0_0
  6
CONTINUOUS
 62
    7
 10
169.2491995
 20
143.13400049999998
 11
168.21997149999999
 21
142.8217295
  0
LINE
  8
_0-0_0
  6
CONTINUOUS
 62
    7
 10
167.82313249999999
 20
143.33904849999999
 11
169.32432249999999
 21
143.45608349999998
  0
LINE
  8
_0-0_0
  6
CONTINUOUS
 62
    7
 10
169.41431949999998
 20
143.92478749999998
 11
167.82313249999999
 21
143.33904849999999
  0
LINE
  8
_0-0_0
  6
CONTINUOUS
 62
    7
 10
168.27470449999998
 20
144.22915449999999
 11
169.44818549999999
 21
144.14048549999998
  0
LINE
  8
_0-0_0
  6
CONTINUOUS
 62
    7
 10
169.52401850000001
 20
144.81527549999998
 11
168.27470449999998
 21
144.22915449999999
  0
LINE
  8
_0-0_0
  6
CONTINUOUS
 62
    7
 10
164.3518765
 20
151.3191205
 11
162.88909649999999
 21
150.25080649999998
  0
LINE
  8
_0-0_0
  6
CONTINUOUS
 62
    7
 10
162.88909649999999
 20
150.25080649999998
 11
164.21209449999998
 21
150.88795249999998
  0
LINE
  8
_0-0_0
  6
CONTINUOUS
 62
    7
 10
164.10663749999998
 20
150.42330749999999
 11
162.89827449999999
 21
149.3101025
  0
LINE
  8
_0-0_0
  6
CONTINUOUS
 62
    7
 10
162.89827449999999
 20
149.3101025
 11
164.02767649999998
 21
149.63656349999999
  0
LINE
  8
_0-0_0
  6
CONTINUOUS
 62
    7
 10
164.1465355
 20
148.83556949999999
 11
163.4033555
 21
147.67963949999998
  0
LINE
  8
_0-0_0
  6
CONTINUOUS
 62
    7
 10
163.4033555
 20
147.67963949999998
 11
164.3731435
 21
148.40803349999999
  0
LINE
  8
_0-0_0
  6
CONTINUOUS
 62
    7
 10
164.66315549999999
 20
148.05523449999998
 11
163.84792049999999
 21
146.5590795
  0
LINE
  8
_0-0_0
  6
CONTINUOUS
 62
    7
 10
163.84792049999999
 20
146.5590795
 11
164.91541050000001
 21
147.83657649999998
  0
LINE
  8
_0-0_0
  6
CONTINUOUS
 62
    7
 10
165.36406449999998
 20
147.57253849999998
 11
165.04364849999999
 21
146.50074549999999
  0
LINE
  8
_0-0_0
  6
CONTINUOUS
 62
    7
 10
165.04364849999999
 20
146.50074549999999
 11
165.67924249999999
 21
147.45773149999999
  0
LINE
  8
_0-0_0
  6
CONTINUOUS
 62
    7
 10
166.30450949999999
 20
147.3677955
 11
166.03744949999998
 21
145.69573749999998
  0
LINE
  8
_0-0_0
  6
CONTINUOUS
 62
    7
 10
166.03744949999998
 20
145.69573749999998
 11
166.76707149999999
 21
147.41006249999998
  0
LINE
  8
_0-0_0
  6
CONTINUOUS
 62
    7
 10
178.1598295
 20
74.544783499999994
 11
179.84399149999999
 21
73.875471499999989
  0
LINE
  8
_0-0_0
  6
CONTINUOUS
 62
    7
 10
179.84396049999998
 20
74.240462499999992
 11
178.1598295
 21
74.544783499999994
  0
LINE
  8
_0-0_0
  6
CONTINUOUS
 62
    7
 10
178.4616135
 20
75.348830499999991
 11
179.8844915
 21
74.657072499999984
  0
LINE
  8
_0-0_0
  6
CONTINUOUS
 62
    7
 10
179.93161449999999
 20
74.914198499999983
 11
178.4616135
 21
75.348830499999991
  0
LINE
  8
_0-0_0
  6
CONTINUOUS
 62
    7
 10
180.98433749999998
 20
80.725508499999989
 11
182.92445849999999
 21
80.601225499999984
  0
LINE
  8
_0-0_0
  6
CONTINUOUS
 62
    7
 10
182.9215245
 20
80.634901499999984
 11
180.98433749999998
 21
80.725508499999989
  0
LINE
  8
_0-0_0
  6
CONTINUOUS
 62
    7
 10
193.30661449999999
 20
113.37545649999998
 11
194.98916349999999
 21
114.6152025
  0
LINE
  8
_0-0_0
  6
CONTINUOUS
 62
    7
 10
190.59200749999999
 20
113.70780049999999
 11
192.67564049999999
 21
115.08329649999999
  0
LINE
  8
_0-0_0
  6
CONTINUOUS
 62
    7
 10
193.44801749999999
 20
115.07664349999999
 11
192.4985475
 21
113.85718349999999
  0
LINE
  8
_0-0_0
  6
CONTINUOUS
 62
    7
 10
192.4985475
 20
113.85718349999999
 11
193.79026449999998
 21
115.05196949999998
  0
LINE
  8
_0-0_0
  6
CONTINUOUS
 62
    7
 10
194.0515485
 20
114.98786749999999
 11
193.30661449999999
 21
113.37545649999998
  0
LINE
  8
_0-0_0
  6
CONTINUOUS
 62
    7
 10
191.95703549999999
 20
115.11357749999999
 11
190.59200749999999
 21
113.70780049999999
  0
LINE
  8
_0-0_0
  6
CONTINUOUS
 62
    7
 10
186.09367850000001
 20
118.3818345
 11
185.8660395
 21
115.98049749999998
  0
LINE
  8
_0-0_0
  6
CONTINUOUS
 62
    7
 10
185.8660395
 20
115.98049749999998
 11
186.41222049999999
 21
117.82295049999999
  0
LINE
  8
_0-0_0
  6
CONTINUOUS
 62
    7
 10
148.53459649999999
 20
63.685301499999994
 11
148.6496095
 21
63.114920499999997
  0
LINE
  8
_0-0_0
  6
CONTINUOUS
 62
    7
 10
148.53943349999997
 20
61.992812499999985
 11
148.41226749999998
 21
61.064131499999988
  0
LINE
  8
_0-0_0
  6
CONTINUOUS
 62
    7
 10
148.41226749999998
 20
61.064131499999988
 11
147.9605765
 21
60.355338499999988
  0
LINE
  8
_0-0_0
  6
CONTINUOUS
 62
    7
 10
147.9605765
 20
60.355338499999988
 11
147.4151665
 21
60.798682499999984
  0
LINE
  8
_0-0_0
  6
CONTINUOUS
 62
    7
 10
146.71133950000001
 20
61.058455499999994
 11
145.90540049999998
 21
61.166586499999994
  0
LINE
  8
_0-0_0
  6
CONTINUOUS
 62
    7
 10
145.90540049999998
 20
61.166586499999994
 11
145.05384549999999
 21
61.154944499999985
  0
LINE
  8
_0-0_0
  6
CONTINUOUS
 62
    7
 10
145.05384549999999
 20
61.154944499999985
 11
144.21304049999998
 21
61.055419499999985
  0
LINE
  8
_0-0_0
  6
CONTINUOUS
 62
    7
 10
144.21304049999998
 20
61.055419499999985
 11
143.43946549999998
 21
60.899878499999986
  0
LINE
  8
_0-0_0
  6
CONTINUOUS
 62
    7
 10
143.43946549999998
 20
60.899878499999986
 11
142.78944949999999
 21
60.720252499999987
  0
LINE
  8
_0-0_0
  6
CONTINUOUS
 62
    7
 10
142.78944949999999
 20
60.720252499999987
 11
142.31947049999999
 21
60.548384499999983
  0
LINE
  8
_0-0_0
  6
CONTINUOUS
 62
    7
 10
142.31947049999999
 20
60.548384499999983
 11
141.9325235
 21
60.977286499999991
  0
LINE
  8
_0-0_0
  6
CONTINUOUS
 62
    7
 10
147.4151665
 20
60.798682499999984
 11
146.71133950000001
 21
61.058455499999994
  0
LINE
  8
_0-0_0
  6
CONTINUOUS
 62
    7
 10
141.6220295
 20
61.450888499999991
 11
141.38143650000001
 21
61.965041499999984
  0
LINE
  8
_0-0_0
  6
CONTINUOUS
 62
    7
 10
141.38143650000001
 20
61.965041499999984
 11
141.20412949999999
 21
62.515601499999988
  0
LINE
  8
_0-0_0
  6
CONTINUOUS
 62
    7
 10
141.20412949999999
 20
62.515601499999988
 11
141.08352450000001
 21
63.098433499999985
  0
LINE
  8
_0-0_0
  6
CONTINUOUS
 62
    7
 10
141.08352450000001
 20
63.098433499999985
 11
141.01298249999999
 21
63.709395499999985
  0
LINE
  8
_0-0_0
  6
CONTINUOUS
 62
    7
 10
141.01298249999999
 20
63.709395499999985
 11
140.98600549999998
 21
64.344359499999996
  0
LINE
  8
_0-0_0
  6
CONTINUOUS
 62
    7
 10
140.98600549999998
 20
64.344359499999996
 11
140.99593849999999
 21
64.999144499999986
  0
LINE
  8
_0-0_0
  6
CONTINUOUS
 62
    7
 10
140.99593849999999
 20
64.999144499999986
 11
141.03619149999997
 21
65.669707499999987
  0
LINE
  8
_0-0_0
  6
CONTINUOUS
 62
    7
 10
141.03619149999997
 20
65.669707499999987
 11
141.1001795
 21
66.351813499999992
  0
LINE
  8
_0-0_0
  6
CONTINUOUS
 62
    7
 10
141.1001795
 20
66.351813499999992
 11
141.1813105
 21
67.041350499999993
  0
LINE
  8
_0-0_0
  6
CONTINUOUS
 62
    7
 10
141.1813105
 20
67.041350499999993
 11
141.27298450000001
 21
67.734183499999986
  0
LINE
  8
_0-0_0
  6
CONTINUOUS
 62
    7
 10
141.27298450000001
 20
67.734183499999986
 11
141.36861949999999
 21
68.426177499999994
  0
LINE
  8
_0-0_0
  6
CONTINUOUS
 62
    7
 10
141.36861949999999
 20
68.426177499999994
 11
141.46158349999999
 21
69.113196499999987
  0
LINE
  8
_0-0_0
  6
CONTINUOUS
 62
    7
 10
141.46158349999999
 20
69.113196499999987
 11
141.54536150000001
 21
69.791052499999992
  0
LINE
  8
_0-0_0
  6
CONTINUOUS
 62
    7
 10
141.54536150000001
 20
69.791052499999992
 11
141.61327849999998
 21
70.455702499999987
  0
LINE
  8
_0-0_0
  6
CONTINUOUS
 62
    7
 10
141.61327849999998
 20
70.455702499999987
 11
141.6587955
 21
71.102889499999989
  0
LINE
  8
_0-0_0
  6
CONTINUOUS
 62
    7
 10
141.6587955
 20
71.102889499999989
 11
141.67528249999998
 21
71.728568499999994
  0
LINE
  8
_0-0_0
  6
CONTINUOUS
 62
    7
 10
141.67528249999998
 20
71.728568499999994
 11
141.65618649999999
 21
72.328551499999989
  0
LINE
  8
_0-0_0
  6
CONTINUOUS
 62
    7
 10
141.59486149999998
 20
72.898695499999988
 11
141.48475450000001
 21
73.434927499999986
  0
LINE
  8
_0-0_0
  6
CONTINUOUS
 62
    7
 10
141.48475450000001
 20
73.434927499999986
 11
141.31927250000001
 21
73.933005499999993
  0
LINE
  8
_0-0_0
  6
CONTINUOUS
 62
    7
 10
141.31927250000001
 20
73.933005499999993
 11
141.42110149999999
 21
73.991515499999991
  0
LINE
  8
_0-0_0
  6
CONTINUOUS
 62
    7
 10
141.55146550000001
 20
74.800673499999988
 11
141.57436150000001
 21
75.64015049999999
  0
LINE
  8
_0-0_0
  6
CONTINUOUS
 62
    7
 10
141.57436150000001
 20
75.64015049999999
 11
141.65650649999998
 21
76.547911499999984
  0
LINE
  8
_0-0_0
  6
CONTINUOUS
 62
    7
 10
141.65650649999998
 20
76.547911499999984
 11
141.73110750000001
 21
77.42779449999999
  0
LINE
  8
_0-0_0
  6
CONTINUOUS
 62
    7
 10
141.73110750000001
 20
77.42779449999999
 11
141.73141249999998
 21
78.183646499999995
  0
LINE
  8
_0-0_0
  6
CONTINUOUS
 62
    7
 10
142.0281885
 20
78.443350499999994
 11
141.9165855
 21
79.213576499999988
  0
LINE
  8
_0-0_0
  6
CONTINUOUS
 62
    7
 10
141.9325235
 20
60.977286499999991
 11
141.6220295
 21
61.450888499999991
  0
LINE
  8
_0-0_0
  6
CONTINUOUS
 62
    7
 10
141.65618649999999
 20
72.328551499999989
 11
141.59486149999998
 21
72.898695499999988
  0
LINE
  8
_0-0_0
  6
CONTINUOUS
 62
    7
 10
141.53037749999999
 20
74.05429749999999
 11
141.65457649999999
 21
74.125647499999985
  0
LINE
  8
_0-0_0
  6
CONTINUOUS
 62
    7
 10
141.65457649999999
 20
74.125647499999985
 11
141.55146550000001
 21
74.800673499999988
  0
LINE
  8
_0-0_0
  6
CONTINUOUS
 62
    7
 10
141.81469449999997
 20
78.274435499999996
 11
141.9096965
 21
78.362067499999995
  0
LINE
  8
_0-0_0
  6
CONTINUOUS
 62
    7
 10
148.53599249999999
 20
63.005049499999984
 11
148.4298225
 21
62.899451499999984
  0
LINE
  8
_0-0_0
  6
CONTINUOUS
 62
    7
 10
148.33857449999999
 20
62.802420499999997
 11
148.53943349999997
 21
61.992812499999985
  0
LINE
  8
_0-0_0
  6
CONTINUOUS
 62
    7
 10
148.43534549999998
 20
64.390776499999987
 11
148.53459649999999
 21
63.685301499999994
  0
LINE
  8
_0-0_0
  6
CONTINUOUS
 62
    7
 10
148.35452049999998
 20
65.198355499999991
 11
148.43534549999998
 21
64.390776499999987
  0
LINE
  8
_0-0_0
  6
CONTINUOUS
 62
    7
 10
148.29472849999999
 20
66.075018499999985
 11
148.35452049999998
 21
65.198355499999991
  0
LINE
  8
_0-0_0
  6
CONTINUOUS
 62
    7
 10
148.25863349999997
 20
66.987753499999997
 11
148.29472849999999
 21
66.075018499999985
  0
LINE
  8
_0-0_0
  6
CONTINUOUS
 62
    7
 10
148.2488535
 20
67.903594499999997
 11
148.25863349999997
 21
66.987753499999997
  0
LINE
  8
_0-0_0
  6
CONTINUOUS
 62
    7
 10
148.26804849999999
 20
68.789496499999984
 11
148.2488535
 21
67.903594499999997
  0
LINE
  8
_0-0_0
  6
CONTINUOUS
 62
    7
 10
148.31883749999997
 20
69.612486499999989
 11
148.26804849999999
 21
68.789496499999984
  0
LINE
  8
_0-0_0
  6
CONTINUOUS
 62
    7
 10
148.40387449999997
 20
70.339545499999986
 11
148.31883749999997
 21
69.612486499999989
  0
LINE
  8
_0-0_0
  6
CONTINUOUS
 62
    7
 10
148.52578449999999
 20
70.937682499999994
 11
148.40387449999997
 21
70.339545499999986
  0
LINE
  8
_0-0_0
  6
CONTINUOUS
 62
    7
 10
148.3198295
 20
71.503180499999985
 11
148.52578449999999
 21
70.937682499999994
  0
LINE
  8
_0-0_0
  6
CONTINUOUS
 62
    7
 10
148.40826149999998
 20
71.970267499999991
 11
148.3198295
 21
71.503180499999985
  0
LINE
  8
_0-0_0
  6
CONTINUOUS
 62
    7
 10
148.75257649999998
 20
72.405936499999996
 11
148.40826149999998
 21
71.970267499999991
  0
LINE
  8
_0-0_0
  6
CONTINUOUS
 62
    7
 10
148.64146149999999
 20
72.77764049999999
 11
148.75257649999998
 21
72.405936499999996
  0
LINE
  8
_0-0_0
  6
CONTINUOUS
 62
    7
 10
148.58215050000001
 20
74.121474499999991
 11
148.58494350000001
 21
73.369635499999987
  0
LINE
  8
_0-0_0
  6
CONTINUOUS
 62
    7
 10
148.58494350000001
 20
73.369635499999987
 11
148.64146149999999
 21
72.77764049999999
  0
LINE
  8
_0-0_0
  6
CONTINUOUS
 62
    7
 10
148.63223049999999
 20
74.972723499999987
 11
148.58215050000001
 21
74.121474499999991
  0
LINE
  8
_0-0_0
  6
CONTINUOUS
 62
    7
 10
148.7342965
 20
75.862952499999992
 11
148.63223049999999
 21
74.972723499999987
  0
LINE
  8
_0-0_0
  6
CONTINUOUS
 62
    7
 10
148.88750949999999
 20
76.731703499999995
 11
148.7342965
 21
75.862952499999992
  0
LINE
  8
_0-0_0
  6
CONTINUOUS
 62
    7
 10
149.09097750000001
 20
77.518568499999986
 11
148.88750949999999
 21
76.731703499999995
  0
LINE
  8
_0-0_0
  6
CONTINUOUS
 62
    7
 10
149.34385449999999
 20
78.163084499999997
 11
149.09097750000001
 21
77.518568499999986
  0
LINE
  8
_0-0_0
  6
CONTINUOUS
 62
    7
 10
149.6452615
 20
78.604826499999987
 11
149.34385449999999
 21
78.163084499999997
  0
ARC
  8
_0-0_0
  6
CONTINUOUS
 62
    7
 10
140.5031865
 20
78.745352499999996
 40
1.488937
 50
18.328552999999999
 51
122.88635900000001
  0
ARC
  8
_0-0_0
  6
CONTINUOUS
 62
    7
 10
146.78239149999999
 20
68.01370949999999
 40
13.921303999999999
 50
120.60547200000001
 51
135.13333900000001
  0
ARC
  8
_0-0_0
  6
CONTINUOUS
 62
    7
 10
134.44005349999998
 20
80.644041499999986
 40
3.7445240000000002
 50
241.37809300000004
 51
311.38592
  0
ARC
  8
_0-0_0
  6
CONTINUOUS
 62
    7
 10
134.3249485
 20
80.593199499999983
 40
3.6455649999999999
 50
203.13350100000002
 51
242.58332100000001
  0
ARC
  8
_0-0_0
  6
CONTINUOUS
 62
    7
 10
133.55825549999997
 20
75.471465499999994
 40
4.5053570000000001
 50
125.02424999999999
 51
158.98168200000001
  0
ARC
  8
_0-0_0
  6
CONTINUOUS
 62
    7
 10
125.49935649999999
 20
80.254172499999996
 40
4.987628
 50
241.28695099999999
 51
320.58533799999998
  0
ARC
  8
_0-0_0
  6
CONTINUOUS
 62
    7
 10
120.5862025
 20
73.071028499999983
 40
3.7715519999999998
 50
48.136417000000009
 51
125.32186799999999
  0
ARC
  8
_0-0_0
  6
CONTINUOUS
 62
    7
 10
117.44576049999999
 20
77.995177499999997
 40
2.0814080000000001
 50
210.60516699999999
 51
297.46162299999997
  0
ARC
  8
_0-0_0
  6
CONTINUOUS
 62
    7
 10
118.12345649999999
 20
78.670462499999985
 40
3.01776
 50
176.90210400000001
 51
215.09405000000001
  0
ARC
  8
_0-0_0
  6
CONTINUOUS
 62
    7
 10
117.50745149999999
 20
79.897108499999987
 40
2.6226769999999999
 50
185.11768799999999
 51
203.92399900000001
  0
ARC
  8
_0-0_0
  6
CONTINUOUS
 62
    7
 10
114.3526895
 20
84.897200499999997
 40
5.2620820000000004
 50
236.05098300000003
 51
275.917868
  0
ARC
  8
_0-0_0
  6
CONTINUOUS
 62
    7
 10
114.40674349999999
 20
85.046591499999991
 40
5.416334
 50
215.88056000000003
 51
236.45918200000003
  0
ARC
  8
_0-0_0
  6
CONTINUOUS
 62
    7
 10
112.6686615
 20
82.859556499999997
 40
2.8284159999999998
 50
137.54956000000001
 51
200.433595
  0
LINE
  8
_0-0_0
  6
CONTINUOUS
 62
    7
 10
110.5816785
 20
84.768599499999993
 11
110.6834775
 21
84.912947499999987
  0
LINE
  8
_0-0_0
  6
CONTINUOUS
 62
    7
 10
110.6834775
 20
84.912947499999987
 11
110.72117449999999
 21
85.020476499999987
  0
LINE
  8
_0-0_0
  6
CONTINUOUS
 62
    7
 10
110.72117449999999
 20
85.020476499999987
 11
110.71082849999999
 21
85.112684499999986
  0
LINE
  8
_0-0_0
  6
CONTINUOUS
 62
    7
 10
110.71082849999999
 20
85.112684499999986
 11
110.70577849999999
 21
85.195654499999989
  0
ARC
  8
_0-0_0
  6
CONTINUOUS
 62
    7
 10
111.7392785
 20
90.206610499999996
 40
5.1164249999999996
 50
200.193049
 51
258.34630499999997
  0
ARC
  8
_0-0_0
  6
CONTINUOUS
 62
    7
 10
112.6681725
 20
86.355711499999984
 40
6.0982609999999999
 50
124.63069400000001
 51
160.009435
  0
ARC
  8
_0-0_0
  6
CONTINUOUS
 62
    7
 10
102.58421149999999
 20
86.747137499999994
 40
8.0750969999999995
 50
34.954439000000001
 51
55.323375000000006
  0
ARC
  8
_0-0_0
  6
CONTINUOUS
 62
    7
 10
109.3400635
 20
96.915564499999988
 40
4.1372429999999998
 50
169.75205700000001
 51
238.502092
  0
ARC
  8
_0-0_0
  6
CONTINUOUS
 62
    7
 10
107.22376849999999
 20
97.112806499999991
 40
2.027841
 50
89.507750999999999
 51
164.59105700000003
  0
ARC
  8
_0-0_0
  6
CONTINUOUS
 62
    7
 10
111.5225885
 20
126.96932849999999
 40
28.156168999999998
 50
261.25375200000002
 51
272.42758700000002
  0
LINE
  8
_0-0_0
  6
CONTINUOUS
 62
    7
 10
112.71519249999999
 20
98.83842349999999
 11
112.99800649999999
 21
98.915037499999997
  0
LINE
  8
_0-0_0
  6
CONTINUOUS
 62
    7
 10
112.99800649999999
 20
98.915037499999997
 11
113.21133949999999
 21
98.939466499999995
  0
LINE
  8
_0-0_0
  6
CONTINUOUS
 62
    7
 10
113.21133949999999
 20
98.939466499999995
 11
113.4143275
 21
99.056089499999985
  0
LINE
  8
_0-0_0
  6
CONTINUOUS
 62
    7
 10
113.4143275
 20
99.056089499999985
 11
113.63851749999999
 21
99.135817499999987
  0
LINE
  8
_0-0_0
  6
CONTINUOUS
 62
    7
 10
113.63851749999999
 20
99.135817499999987
 11
113.8894485
 21
99.24319349999999
  0
LINE
  8
_0-0_0
  6
CONTINUOUS
 62
    7
 10
113.8894485
 20
99.24319349999999
 11
114.0603845
 21
99.341398499999997
  0
LINE
  8
_0-0_0
  6
CONTINUOUS
 62
    7
 10
114.0603845
 20
99.341398499999997
 11
114.3010695
 21
99.565550499999986
  0
ARC
  8
_0-0_0
  6
CONTINUOUS
 62
    7
 10
110.77948549999999
 20
101.03405649999999
 40
3.8155049999999999
 50
337.36380700000007
 51
65.587370000000078
  0
ARC
  8
_0-0_0
  6
CONTINUOUS
 62
    7
 10
120.52457249999999
 20
126.67460449999999
 40
23.623235000000001
 50
229.13318899999999
 51
249.771412
  0
ARC
  8
_0-0_0
  6
CONTINUOUS
 62
    7
 10
113.2823925
 20
117.33737049999999
 40
11.840452000000001
 50
210.77473400000002
 51
226.07058700000002
  0
ARC
  8
_0-0_0
  6
CONTINUOUS
 62
    7
 10
103.1387005
 20
112.07890949999999
 40
0.800417
 50
267.89089300000001
 51
2.3129400000000437
  0
ARC
  8
_0-0_0
  6
CONTINUOUS
 62
    7
 10
102.03509349999999
 20
111.99199549999999
 40
1.907106
 50
3.5841230000000004
 51
69.185287999999986
  0
ARC
  8
_0-0_0
  6
CONTINUOUS
 62
    7
 10
103.04333349999999
 20
116.34497649999999
 40
2.5915159999999999
 50
199.962695
 51
262.67172699999998
  0
ARC
  8
_0-0_0
  6
CONTINUOUS
 62
    7
 10
104.63203249999999
 20
114.90551549999999
 40
4.0625450000000001
 50
127.33472500000002
 51
172.15232300000002
  0
ARC
  8
_0-0_0
  6
CONTINUOUS
 62
    7
 10
103.96975549999999
 20
119.50280549999999
 40
2.2615509999999999
 50
178.113302
 51
217.19378599999999
  0
ARC
  8
_0-0_0
  6
CONTINUOUS
 62
    7
 10
96.852621499999998
 20
119.13887649999999
 40
4.8765559999999999
 50
5.157649000000001
 51
25.283832
  0
ARC
  8
_0-0_0
  6
CONTINUOUS
 62
    7
 10
104.87489149999999
 20
122.28864849999999
 40
3.7671420000000002
 50
162.59022200000001
 51
196.45341199999999
  0
ARC
  8
_0-0_0
  6
CONTINUOUS
 62
    7
 10
95.84110849999999
 20
123.7822855
 40
5.4515539999999998
 50
356.14532400000002
 51
15.691360999999976
  0
ARC
  8
_0-0_0
  6
CONTINUOUS
 62
    7
 10
102.23145849999999
 20
111.97007549999999
 40
13.335587
 50
82.448190000000011
 51
94.912431999999995
  0
ARC
  8
_0-0_0
  6
CONTINUOUS
 62
    7
 10
104.71873849999999
 20
127.29472149999998
 40
2.1656040000000001
 50
260.37023900000003
 51
327.02864399999999
  0
ARC
  8
_0-0_0
  6
CONTINUOUS
 62
    7
 10
111.5239235
 20
123.42150749999999
 40
5.6696540000000004
 50
124.50264200000001
 51
151.62267299999999
  0
ARC
  8
_0-0_0
  6
CONTINUOUS
 62
    7
 10
108.7800575
 20
126.44970549999999
 40
1.7093940000000001
 50
32.707521999999997
 51
105.87812300000002
  0
ARC
  8
_0-0_0
  6
CONTINUOUS
 62
    7
 10
112.2677365
 20
128.2628005
 40
2.234016
 50
203.461322
 51
280.83003100000002
  0
LINE
  8
_0-0_0
  6
CONTINUOUS
 62
    7
 10
112.68749749999999
 20
126.06857149999999
 11
112.7622885
 21
126.11153949999999
  0
LINE
  8
_0-0_0
  6
CONTINUOUS
 62
    7
 10
112.7622885
 20
126.11153949999999
 11
112.8961315
 21
126.2743055
  0
LINE
  8
_0-0_0
  6
CONTINUOUS
 62
    7
 10
112.8961315
 20
126.2743055
 11
112.9551905
 21
126.39411749999999
  0
ARC
  8
_0-0_0
  6
CONTINUOUS
 62
    7
 10
116.46516249999999
 20
125.48385449999998
 40
3.6260810000000001
 50
126.55249099999999
 51
165.46144199999998
  0
ARC
  8
_0-0_0
  6
CONTINUOUS
 62
    7
 10
114.62370849999999
 20
125.11582749999999
 40
3.2962910000000001
 50
27.353567000000002
 51
95.537707999999995
  0
ARC
  8
_0-0_0
  6
CONTINUOUS
 62
    7
 10
121.53691649999999
 20
128.9505135
 40
4.6116130000000002
 50
210.205342
 51
243.88408900000002
  0
ARC
  8
_0-0_0
  6
CONTINUOUS
 62
    7
 10
101.04591149999999
 20
108.1859875
 40
27.443601000000001
 50
28.113173
 51
38.65175
  0
ARC
  8
_0-0_0
  6
CONTINUOUS
 62
    7
 10
121.16699749999999
 20
119.04901749999999
 40
4.578697
 50
359.34977600000008
 51
26.861201000000047
  0
ARC
  8
_0-0_0
  6
CONTINUOUS
 62
    7
 10
130.0823345
 20
114.8605865
 40
2.8176749999999999
 50
235.05650700000004
 51
327.50639600000005
  0
ARC
  8
_0-0_0
  6
CONTINUOUS
 62
    7
 10
125.3378125
 20
120.07247749999999
 40
9.7950590000000002
 50
316.63620400000002
 51
337.76684299999999
  0
ARC
  8
_0-0_0
  6
CONTINUOUS
 62
    7
 10
128.90161649999999
 20
117.19764549999999
 40
5.5654560000000002
 50
351.40883400000007
 51
50.176096000000001
  0
ARC
  8
_0-0_0
  6
CONTINUOUS
 62
    7
 10
130.97744549999999
 20
126.86125049999998
 40
1.5552170000000001
 50
133.69766100000001
 51
207.92791099999999
  0
ARC
  8
_0-0_0
  6
CONTINUOUS
 62
    7
 10
123.14749649999999
 20
135.98212949999999
 40
10.468076999999999
 50
310.19156600000002
 51
322.376733
  0
ARC
  8
_0-0_0
  6
CONTINUOUS
 62
    7
 10
140.84675349999998
 20
136.6592545
 40
11.767006
 50
187.14562599999999
 51
216.91454100000001
  0
ARC
  8
_0-0_0
  6
CONTINUOUS
 62
    7
 10
130.71171349999997
 20
134.03201149999998
 40
1.9305840000000001
 50
86.751414000000011
 51
142.93799200000001
  0
ARC
  8
_0-0_0
  6
CONTINUOUS
 62
    7
 10
131.74339049999998
 20
139.6975075
 40
3.8501110000000001
 50
256.14023500000002
 51
281.01389899999998
  0
ARC
  8
_0-0_0
  6
CONTINUOUS
 62
    7
 10
132.4399775
 20
137.07723849999999
 40
1.159581
 50
271.92589500000008
 51
14.834623000000054
  0
ARC
  8
_0-0_0
  6
CONTINUOUS
 62
    7
 10
140.88099449999999
 20
140.3635845
 40
7.9069890000000003
 50
166.96607800000004
 51
202.21463500000002
  0
ARC
  8
_0-0_0
  6
CONTINUOUS
 62
    7
 10
135.88186450000001
 20
141.23672249999998
 40
2.8531970000000002
 50
105.50134900000002
 51
161.39900900000001
  0
ARC
  8
_0-0_0
  6
CONTINUOUS
 62
    7
 10
134.49606849999998
 20
142.33996349999998
 40
1.7601990000000001
 50
25.373093999999998
 51
69.262980999999996
  0
ARC
  8
_0-0_0
  6
CONTINUOUS
 62
    7
 10
137.35852549999998
 20
144.1335885
 40
1.642673
 50
219.25097099999999
 51
317.54623199999997
  0
ARC
  8
_0-0_0
  6
CONTINUOUS
 62
    7
 10
149.82407849999998
 20
146.02543449999999
 40
11.646732
 50
150.27391499999999
 51
194.93000600000002
  0
ARC
  8
_0-0_0
  6
CONTINUOUS
 62
    7
 10
140.47321849999997
 20
149.04435549999999
 40
2.8598840000000001
 50
38.09391200000001
 51
105.478222
  0
ARC
  8
_0-0_0
  6
CONTINUOUS
 62
    7
 10
143.43184450000001
 20
151.22822349999998
 40
0.8228389999999999
 50
210.64856599999999
 51
313.939728
  0
ARC
  8
_0-0_0
  6
CONTINUOUS
 62
    7
 10
155.83441249999998
 20
151.7938825
 40
11.888152
 50
148.856911
 51
185.59070600000004
  0
ARC
  8
_0-0_0
  6
CONTINUOUS
 62
    7
 10
146.98517349999997
 20
155.8408335
 40
2.4844979999999999
 50
54.247821000000009
 51
122.24471800000001
  0
ARC
  8
_0-0_0
  6
CONTINUOUS
 62
    7
 10
137.72602649999999
 20
165.41039749999999
 40
13.106211
 50
324.808471
 51
340.13399500000003
  0
ARC
  8
_0-0_0
  6
CONTINUOUS
 62
    7
 10
157.1600545
 20
156.80367849999999
 40
8.2320910000000005
 50
101.494186
 51
149.70300700000001
  0
ARC
  8
_0-0_0
  6
CONTINUOUS
 62
    7
 10
151.7310765
 20
160.0899785
 40
6.099863
 50
4.3957790000000001
 51
51.604019000000008
  0
ARC
  8
_0-0_0
  6
CONTINUOUS
 62
    7
 10
161.6935245
 20
161.6295145
 40
4.0258760000000002
 50
195.44292600000003
 51
222.02663700000002
  0
ARC
  8
_0-0_0
  6
CONTINUOUS
 62
    7
 10
156.1327445
 20
157.1183145
 40
3.14703
 50
348.04193299999997
 51
35.242792999999999
  0
ARC
  8
_0-0_0
  6
CONTINUOUS
 62
    7
 10
159.95622349999999
 20
156.1458255
 40
0.8107499999999999
 50
156.71963299999999
 51
263.03837100000004
  0
ARC
  8
_0-0_0
  6
CONTINUOUS
 62
    7
 10
158.9535305
 20
160.54548449999999
 40
5.282432
 50
279.85842300000002
 51
299.50800300000003
  0
ARC
  8
_0-0_0
  6
CONTINUOUS
 62
    7
 10
163.60353549999999
 20
153.68185249999999
 40
3.0547650000000002
 50
89.467664000000013
 51
132.10438300000004
  0
ARC
  8
_0-0_0
  6
CONTINUOUS
 62
    7
 10
159.42794549999999
 20
153.39721449999999
 40
5.3688089999999997
 50
342.28572300000002
 51
38.460597000000028
  0
ARC
  8
_0-0_0
  6
CONTINUOUS
 62
    7
 10
169.17455050000001
 20
149.51736249999999
 40
5.14825
 50
154.13074499999999
 51
183.76174499999999
  0
ARC
  8
_0-0_0
  6
CONTINUOUS
 62
    7
 10
166.3231285
 20
149.7154065
 40
2.3476979999999998
 50
193.192802
 51
296.80603400000001
  0
ARC
  8
_0-0_0
  6
CONTINUOUS
 62
    7
 10
168.11119149999999
 20
143.12853749999999
 40
4.5503
 50
73.778896999999986
 51
99.223087000000007
  0
ARC
  8
_0-0_0
  6
CONTINUOUS
 62
    7
 10
159.3153125
 20
145.62086249999999
 40
10.240443000000001
 50
322.23064900000008
 51
10.560654000000028
  0
ARC
  8
_0-0_0
  6
CONTINUOUS
 62
    7
 10
168.65598749999998
 20
138.9757055
 40
1.3004389999999999
 50
163.33010899999999
 51
297.34198600000002
  0
ARC
  8
_0-0_0
  6
CONTINUOUS
 62
    7
 10
171.97383249999999
 20
134.07819949999998
 40
4.626722
 50
78.987927999999997
 51
126.01578800000001
  0
ARC
  8
_0-0_0
  6
CONTINUOUS
 62
    7
 10
163.52921049999998
 20
138.88866949999999
 40
9.3322760000000002
 50
307.36624399999999
 51
358.34866199999999
  0
LINE
  8
_0-0_0
  6
CONTINUOUS
 62
    7
 10
169.1930395
 20
131.4716325
 11
169.03967749999998
 21
131.20812749999999
  0
LINE
  8
_0-0_0
  6
CONTINUOUS
 62
    7
 10
169.03967749999998
 20
131.20812749999999
 11
169.11543749999998
 21
131.07626149999999
  0
LINE
  8
_0-0_0
  6
CONTINUOUS
 62
    7
 10
169.11543749999998
 20
131.07626149999999
 11
169.24802449999999
 21
130.84548749999999
  0
LINE
  8
_0-0_0
  6
CONTINUOUS
 62
    7
 10
169.24802449999999
 20
130.84548749999999
 11
169.32378849999998
 21
130.71362149999999
  0
LINE
  8
_0-0_0
  6
CONTINUOUS
 62
    7
 10
169.32378849999998
 20
130.71362149999999
 11
169.38061249999998
 21
130.61471349999999
  0
LINE
  8
_0-0_0
  6
CONTINUOUS
 62
    7
 10
169.38061249999998
 20
130.61471349999999
 11
170.10495850000001
 21
130.6800825
  0
ARC
  8
_0-0_0
  6
CONTINUOUS
 62
    7
 10
169.1872875
 20
108.83541749999999
 40
21.863938999999998
 50
77.258121000000003
 51
87.594477999999995
  0
ARC
  8
_0-0_0
  6
CONTINUOUS
 62
    7
 10
166.08819649999998
 20
131.49198749999999
 40
8.0324390000000001
 50
297.96115600000002
 51
350.461432
  0
ARC
  8
_0-0_0
  6
CONTINUOUS
 62
    7
 10
166.20845549999999
 20
120.50070049999999
 40
5.3362550000000004
 50
14.975779000000001
 51
46.902817000000006
  0
ARC
  8
_0-0_0
  6
CONTINUOUS
 62
    7
 10
171.85517949999999
 20
121.4491865
 40
0.6535119999999999
 50
138.800577
 51
258.415863
  0
ARC
  8
_0-0_0
  6
CONTINUOUS
 62
    7
 10
157.3883185
 20
129.67890749999998
 40
16.857813
 50
299.71684199999999
 51
328.25356399999998
  0
ARC
  8
_0-0_0
  6
CONTINUOUS
 62
    7
 10
167.86224049999998
 20
111.7177105
 40
3.9380299999999999
 50
122.52363499999998
 51
229.27767499999999
  0
ARC
  8
_0-0_0
  6
CONTINUOUS
 62
    7
 10
168.12539749999999
 20
112.5362385
 40
4.741886
 50
233.32355100000001
 51
336.03883200000001
  0
ARC
  8
_0-0_0
  6
CONTINUOUS
 62
    7
 10
188.1006055
 20
103.58959849999999
 40
17.145378000000001
 50
120.54182900000001
 51
155.82711900000001
  0
LINE
  8
_0-0_0
  6
CONTINUOUS
 62
    7
 10
179.38788349999999
 20
118.35619949999999
 11
179.66183949999999
 21
118.15637049999999
  0
LINE
  8
_0-0_0
  6
CONTINUOUS
 62
    7
 10
179.66183949999999
 20
118.15637049999999
 11
179.85204049999999
 21
117.90843049999999
  0
LINE
  8
_0-0_0
  6
CONTINUOUS
 62
    7
 10
179.85204049999999
 20
117.90843049999999
 11
179.95887449999998
 21
117.7224945
  0
LINE
  8
_0-0_0
  6
CONTINUOUS
 62
    7
 10
179.95887449999998
 20
117.7224945
 11
180.04789449999998
 21
117.56754849999999
  0
LINE
  8
_0-0_0
  6
CONTINUOUS
 62
    7
 10
180.04789449999998
 20
117.56754849999999
 11
180.2380915
 21
117.3195935
  0
LINE
  8
_0-0_0
  6
CONTINUOUS
 62
    7
 10
180.2380915
 20
117.3195935
 11
180.40963049999999
 21
116.85482649999999
  0
ARC
  8
_0-0_0
  6
CONTINUOUS
 62
    7
 10
177.7674495
 20
123.6777635
 40
7.316656
 50
291.16891500000003
 51
313.81692099999998
  0
ARC
  8
_0-0_0
  6
CONTINUOUS
 62
    7
 10
187.3006335
 20
115.80862249999998
 40
5.1638140000000003
 50
125.586196
 51
149.89930699999999
  0
ARC
  8
_0-0_0
  6
CONTINUOUS
 62
    7
 10
182.0292445
 20
115.69509749999999
 40
4.8721870000000003
 50
13.713309000000001
 51
62.27837499999999
  0
ARC
  8
_0-0_0
  6
CONTINUOUS
 62
    7
 10
189.03268850000001
 20
113.56018649999999
 40
3.9971480000000001
 50
71.620196000000007
 51
124.606747
  0
LINE
  8
_0-0_0
  6
CONTINUOUS
 62
    7
 10
190.2930495
 20
117.35343749999998
 11
190.43011949999999
 21
117.28105749999999
  0
LINE
  8
_0-0_0
  6
CONTINUOUS
 62
    7
 10
190.43011949999999
 20
117.28105749999999
 11
190.65037949999999
 21
117.09159649999999
  0
LINE
  8
_0-0_0
  6
CONTINUOUS
 62
    7
 10
190.65037949999999
 20
117.09159649999999
 11
190.80468450000001
 21
116.82301949999999
  0
LINE
  8
_0-0_0
  6
CONTINUOUS
 62
    7
 10
190.80468450000001
 20
116.82301949999999
 11
191.0126995
 21
116.54408049999999
  0
LINE
  8
_0-0_0
  6
CONTINUOUS
 62
    7
 10
191.0126995
 20
116.54408049999999
 11
191.12545449999999
 21
116.34782249999999
  0
LINE
  8
_0-0_0
  6
CONTINUOUS
 62
    7
 10
191.12545449999999
 20
116.34782249999999
 11
191.30407349999999
 21
116.20313049999999
  0
LINE
  8
_0-0_0
  6
CONTINUOUS
 62
    7
 10
191.30407349999999
 20
116.20313049999999
 11
190.84947649999998
 21
115.96942749999999
  0
LINE
  8
_0-0_0
  6
CONTINUOUS
 62
    7
 10
190.84947649999998
 20
115.96942749999999
 11
190.77767649999998
 21
115.92817549999999
  0
LINE
  8
_0-0_0
  6
CONTINUOUS
 62
    7
 10
190.77767649999998
 20
115.92817549999999
 11
190.74139049999999
 21
115.7974225
  0
LINE
  8
_0-0_0
  6
CONTINUOUS
 62
    7
 10
190.74139049999999
 20
115.7974225
 11
190.7829405
 21
115.7251115
  0
LINE
  8
_0-0_0
  6
CONTINUOUS
 62
    7
 10
190.7829405
 20
115.7251115
 11
190.85980649999999
 21
115.50822249999999
  0
LINE
  8
_0-0_0
  6
CONTINUOUS
 62
    7
 10
190.85980649999999
 20
115.50822249999999
 11
190.90134849999998
 21
115.43591949999998
  0
LINE
  8
_0-0_0
  6
CONTINUOUS
 62
    7
 10
190.90134849999998
 20
115.43591949999998
 11
190.9666335
 21
115.32228649999999
  0
LINE
  8
_0-0_0
  6
CONTINUOUS
 62
    7
 10
190.9666335
 20
115.32228649999999
 11
191.1631515
 21
115.17414649999999
  0
ARC
  8
_0-0_0
  6
CONTINUOUS
 62
    7
 10
193.25355250000001
 20
137.33949049999998
 40
22.263704000000001
 50
264.61240199999997
 51
271.027152
  0
ARC
  8
_0-0_0
  6
CONTINUOUS
 62
    7
 10
192.8140985
 20
110.50863449999999
 40
4.6470200000000004
 50
43.915264999999998
 51
79.604031000000006
  0
ARC
  8
_0-0_0
  6
CONTINUOUS
 62
    7
 10
184.9052015
 20
115.64973249999998
 40
11.418687
 50
314.29727500000001
 51
350.33042899999998
  0
ARC
  8
_0-0_0
  6
CONTINUOUS
 62
    7
 10
192.11982449999999
 20
105.15126649999999
 40
2.4468269999999999
 50
14.201591000000001
 51
71.904926000000003
  0
ARC
  8
_0-0_0
  6
CONTINUOUS
 62
    7
 10
190.68130149999999
 20
107.14845149999999
 40
4.0585389999999997
 50
294.22009700000001
 51
339.86775399999999
  0
ARC
  8
_0-0_0
  6
CONTINUOUS
 62
    7
 10
195.14049949999998
 20
94.378744499999996
 40
9.489141
 50
107.125404
 51
126.07374900000001
  0
ARC
  8
_0-0_0
  6
CONTINUOUS
 62
    7
 10
193.77579950000001
 20
102.23188649999999
 40
4.226737
 50
182.48753300000001
 51
216.965644
  0
ARC
  8
_0-0_0
  6
CONTINUOUS
 62
    7
 10
185.02299549999998
 20
102.05105449999999
 40
5.8712260000000001
 50
298.20073200000002
 51
336.29012799999998
  0
ARC
  8
_0-0_0
  6
CONTINUOUS
 62
    7
 10
182.98365050000001
 20
111.28175149999998
 40
15.188058
 50
266.185968
 51
288.478613
  0
ARC
  8
_0-0_0
  6
CONTINUOUS
 62
    7
 10
181.9042135
 20
92.773062499999995
 40
3.3549850000000001
 50
88.818939999999998
 51
249.01755
  0
ARC
  8
_0-0_0
  6
CONTINUOUS
 62
    7
 10
182.2174345
 20
97.100966499999984
 40
7.6126050000000003
 50
258.52402599999999
 51
282.74876699999999
  0
ARC
  8
_0-0_0
  6
CONTINUOUS
 62
    7
 10
184.11575349999998
 20
85.422064499999991
 40
4.2595660000000004
 50
22.123251
 51
92.938944000000021
  0
ARC
  8
_0-0_0
  6
CONTINUOUS
 62
    7
 10
180.03114349999998
 20
89.982725499999987
 40
8.5575080000000003
 50
291.14637599999998
 51
339.78846900000002
  0
ARC
  8
_0-0_0
  6
CONTINUOUS
 62
    7
 10
186.01289850000001
 20
80.887251499999991
 40
3.1016590000000002
 50
158.94693000000001
 51
200.341497
  0
ARC
  8
_0-0_0
  6
CONTINUOUS
 62
    7
 10
180.20421249999998
 20
79.826582499999986
 40
2.900509
 50
291.014498
 51
359.65396500000003
  0
ARC
  8
_0-0_0
  6
CONTINUOUS
 62
    7
 10
183.87695349999998
 20
74.058325499999995
 40
4.0371069999999998
 50
130.70024599999999
 51
196.77131600000001
  0
ARC
  8
_0-0_0
  6
CONTINUOUS
 62
    7
 10
176.07632949999999
 20
79.492102499999987
 40
7.6830259999999999
 50
252.154246
 51
300.81043799999998
  0
LINE
  8
_0-0_0
  6
CONTINUOUS
 62
    7
 10
173.72182549999999
 20
72.178748499999983
 11
173.31518649999998
 21
72.000075499999994
  0
LINE
  8
_0-0_0
  6
CONTINUOUS
 62
    7
 10
173.31518649999998
 20
72.000075499999994
 11
173.20711249999999
 21
71.828062499999987
  0
LINE
  8
_0-0_0
  6
CONTINUOUS
 62
    7
 10
173.20711249999999
 20
71.828062499999987
 11
173.12248749999998
 21
71.532134499999984
  0
LINE
  8
_0-0_0
  6
CONTINUOUS
 62
    7
 10
173.12248749999998
 20
71.532134499999984
 11
173.09185450000001
 21
71.308447499999986
  0
LINE
  8
_0-0_0
  6
CONTINUOUS
 62
    7
 10
173.09185450000001
 20
71.308447499999986
 11
173.03728949999999
 21
71.071005499999984
  0
LINE
  8
_0-0_0
  6
CONTINUOUS
 62
    7
 10
173.03728949999999
 20
71.071005499999984
 11
172.91112249999998
 21
70.847380499999986
  0
LINE
  8
_0-0_0
  6
CONTINUOUS
 62
    7
 10
172.91112249999998
 20
70.847380499999986
 11
172.3783195
 21
70.445090499999992
  0
LINE
  8
_0-0_0
  6
CONTINUOUS
 62
    7
 10
172.3783195
 20
70.445090499999992
 11
172.18686750000001
 21
70.335097499999989
  0
ARC
  8
_0-0_0
  6
CONTINUOUS
 62
    7
 10
171.46963549999998
 20
73.967749499999996
 40
3.7027839999999999
 50
212.34749400000001
 51
281.168835
  0
ARC
  8
_0-0_0
  6
CONTINUOUS
 62
    7
 10
165.98076349999999
 20
70.165747499999995
 40
2.9813160000000001
 50
37.643231999999998
 51
87.698775000000012
  0
LINE
  8
_0-0_0
  6
CONTINUOUS
 62
    7
 10
166.1004725
 20
73.144652499999992
 11
165.92711349999999
 21
73.086272499999993
  0
LINE
  8
_0-0_0
  6
CONTINUOUS
 62
    7
 10
165.92711349999999
 20
73.086272499999993
 11
165.8433545
 21
73.038153499999993
  0
LINE
  8
_0-0_0
  6
CONTINUOUS
 62
    7
 10
165.8433545
 20
73.038153499999993
 11
165.5083205
 21
72.845663499999986
  0
LINE
  8
_0-0_0
  6
CONTINUOUS
 62
    7
 10
165.5083205
 20
72.845663499999986
 11
165.26249749999999
 21
72.553290499999989
  0
LINE
  8
_0-0_0
  6
CONTINUOUS
 62
    7
 10
165.26249749999999
 20
72.553290499999989
 11
165.1535615
 21
72.133482499999985
  0
ARC
  8
_0-0_0
  6
CONTINUOUS
 62
    7
 10
166.79609049999999
 20
83.120756499999985
 40
11.109367000000001
 50
225.621106
 51
261.49759
  0
LINE
  8
_0-0_0
  6
CONTINUOUS
 62
    7
 10
159.0261965
 20
75.180548499999986
 11
158.74572849999998
 21
75.225500499999995
  0
LINE
  8
_0-0_0
  6
CONTINUOUS
 62
    7
 10
158.74572849999998
 20
75.225500499999995
 11
158.7279255
 21
75.256491499999996
  0
LINE
  8
_0-0_0
  6
CONTINUOUS
 62
    7
 10
158.7279255
 20
75.256491499999996
 11
158.5607885
 21
75.270377499999995
  0
LINE
  8
_0-0_0
  6
CONTINUOUS
 62
    7
 10
158.5607885
 20
75.270377499999995
 11
158.3693365
 21
75.160391499999989
  0
LINE
  8
_0-0_0
  6
CONTINUOUS
 62
    7
 10
158.3693365
 20
75.160391499999989
 11
158.26164749999998
 21
75.098517499999986
  0
LINE
  8
_0-0_0
  6
CONTINUOUS
 62
    7
 10
158.26164749999998
 20
75.098517499999986
 11
158.17788849999999
 21
75.050398499999986
  0
LINE
  8
_0-0_0
  6
CONTINUOUS
 62
    7
 10
158.17788849999999
 20
75.050398499999986
 11
158.0701995
 21
74.988516499999989
  0
ARC
  8
_0-0_0
  6
CONTINUOUS
 62
    7
 10
154.9843415
 20
79.677717499999986
 40
5.6134740000000001
 50
273.55475899999999
 51
303.34804400000002
  0
ARC
  8
_0-0_0
  6
CONTINUOUS
 62
    7
 10
144.67417649999999
 20
67.291068499999994
 40
12.634069
 50
32.476849000000001
 51
55.050700000000006
  0
ARC
  8
_0-0_0
  6
CONTINUOUS
 62
    7
 10
153.74720550000001
 20
83.467863499999993
 40
6.1037220000000003
 50
231.39675500000004
 51
252.49840599999999
  0
LINE
  8
_0-0_0
  6
CONTINUOUS
 62
    7
 10
149.93895449999999
 20
78.69790549999999
 11
149.6452615
 21
78.604826499999987
  0
ARC
  8
_0-0_0
  6
CONTINUOUS
 62
    7
 10
2373.7144265000002
 20
-74.271895500000028
 40
2232.0776030000002
 50
174.08597600000002
 51
175.62647100000004
  0
ARC
  8
_0-0_0
  6
CONTINUOUS
 62
    7
 10
-903.48645250000004
 20
195.4447605
 40
1057.630355
 50
354.67224399999998
 51
357.83344699999998
  0
ARC
  8
_0-0_0
  6
CONTINUOUS
 62
    7
 10
81.352812499999985
 20
84.270231499999994
 40
45.886699
 50
33.573143000000002
 51
55.391536000000009
  0
ARC
  8
_0-0_0
  6
CONTINUOUS
 62
    7
 10
141.84782949999999
 20
121.62580649999998
 40
25.536377000000002
 50
212.54353399999999
 51
249.569648
  0
ARC
  8
_0-0_0
  6
CONTINUOUS
 62
    7
 10
154.23064149999999
 20
150.76472249999998
 40
57.12424
 50
248.44220200000001
 51
288.72081200000002
  0
ARC
  8
_0-0_0
  6
CONTINUOUS
 62
    7
 10
158.20228349999999
 20
128.13557249999999
 40
34.697913999999997
 50
295.526385
 51
316.37564600000002
  0
ARC
  8
_0-0_0
  6
CONTINUOUS
 62
    7
 10
211.4803885
 20
78.959860499999991
 40
37.814459999999997
 50
118.370375
 51
138.13468800000001
  0
ARC
  8
_0-0_0
  6
CONTINUOUS
 62
    7
 10
204.57275849999999
 20
85.770659499999994
 40
29.136956999999999
 50
114.67009300000001
 51
142.36316299999999
  0
ARC
  8
_0-0_0
  6
CONTINUOUS
 62
    7
 10
161.17238749999999
 20
123.4430375
 40
28.412191
 50
274.53546500000004
 51
310.49881500000004
  0
ARC
  8
_0-0_0
  6
CONTINUOUS
 62
    7
 10
152.94178549999998
 20
144.5433175
 40
50.521835000000003
 50
240.520194
 51
281.96900599999998
  0
ARC
  8
_0-0_0
  6
CONTINUOUS
 62
    7
 10
151.3824285
 20
130.68743749999999
 40
37.726931999999998
 50
215.86875700000002
 51
230.91298600000002
  0
ARC
  8
_0-0_0
  6
CONTINUOUS
 62
    7
 10
88.913252499999984
 20
90.557234499999993
 40
36.462417000000002
 50
30.672954999999998
 51
59.973363999999989
  0
ARC
  8
_0-0_0
  6
CONTINUOUS
 62
    7
 10
194.47726849999998
 20
153.7275525
 40
62.340308
 50
198.14735300000004
 51
209.68548200000004
  0
ARC
  8
_0-0_0
  6
CONTINUOUS
 62
    7
 10
162.37867849999998
 20
136.15357749999998
 40
25.820914999999999
 50
214.032556
 51
238.177166
  0
ARC
  8
_0-0_0
  6
CONTINUOUS
 62
    7
 10
171.21859849999998
 20
143.72350849999998
 40
36.981529000000002
 50
190.60340900000003
 51
220.88419200000004
  0
ARC
  8
_0-0_0
  6
CONTINUOUS
 62
    7
 10
169.41201849999999
 20
145.86739949999998
 40
37.225608000000001
 50
226.28393500000004
 51
236.97188299999999
  0
ARC
  8
_0-0_0
  6
CONTINUOUS
 62
    7
 10
152.5309575
 20
125.53137049999998
 40
12.250016
 50
264.61393199999998
 51
321.45509400000003
  0
ARC
  8
_0-0_0
  6
CONTINUOUS
 62
    7
 10
183.19431349999999
 20
108.50817749999999
 40
23.000907999999999
 50
120.29636499999999
 51
154.33768700000002
  0
ARC
  8
_0-0_0
  6
CONTINUOUS
 62
    7
 10
153.37661449999999
 20
124.60447549999998
 40
10.452258
 50
259.61065500000001
 51
329.66894300000001
  0
ARC
  8
_0-0_0
  6
CONTINUOUS
 62
    7
 10
181.8244105
 20
108.73187049999999
 40
22.234632000000001
 50
118.81331300000001
 51
148.28023800000003
  0
ARC
  8
_0-0_0
  6
CONTINUOUS
 62
    7
 10
241.49287749999999
 20
205.2586795
 40
115.82320199999999
 50
210.47036700000001
 51
218.073173
  0
ARC
  8
_0-0_0
  6
CONTINUOUS
 62
    7
 10
181.48148849999998
 20
166.5667095
 40
44.233061999999997
 50
205.51432700000004
 51
224.79424300000002
  0
ARC
  8
_0-0_0
  6
CONTINUOUS
 62
    7
 10
135.67155249999999
 20
160.28976249999999
 40
34.431041
 50
302.21805799999998
 51
332.97800599999999
  0
ARC
  8
_0-0_0
  6
CONTINUOUS
 62
    7
 10
141.81371050000001
 20
156.61198149999998
 40
27.138385
 50
295.46562299999999
 51
331.95347700000002
  0
ARC
  8
_0-0_0
  6
CONTINUOUS
 62
    7
 10
151.5082065
 20
150.9870885
 40
10.403293
 50
288.98983900000007
 51
343.18613300000004
  0
ARC
  8
_0-0_0
  6
CONTINUOUS
 62
    7
 10
306.80295849999999
 20
91.960661499999986
 40
155.89945800000001
 50
156.48915500000004
 51
158.92353000000003
  0
ARC
  8
_0-0_0
  6
CONTINUOUS
 62
    7
 10
205.4695935
 20
131.8411385
 40
47.538448000000002
 50
151.311161
 51
161.69190199999997
  0
ARC
  8
_0-0_0
  6
CONTINUOUS
 62
    7
 10
152.5322085
 20
150.96680949999998
 40
8.7023069999999993
 50
282.953372
 51
328.615318
  0
ARC
  8
_0-0_0
  6
CONTINUOUS
 62
    7
 10
164.7154165
 20
156.78811449999998
 40
18.132315999999999
 50
183.94853699999999
 51
222.41735100000002
  0
ARC
  8
_0-0_0
  6
CONTINUOUS
 62
    7
 10
160.60335649999999
 20
156.6902135
 40
13.972828
 50
182.281384
 51
229.17489499999999
  0
ARC
  8
_0-0_0
  6
CONTINUOUS
 62
    7
 10
158.4002395
 20
137.11631549999998
 40
40.133338000000002
 50
200.01582000000002
 51
210.78510200000002
  0
ARC
  8
_0-0_0
  6
CONTINUOUS
 62
    7
 10
113.94057249999999
 20
108.27371849999999
 40
12.162910999999999
 50
345.78267099999999
 51
24.493843999999999
  0
ARC
  8
_0-0_0
  6
CONTINUOUS
 62
    7
 10
107.60183549999999
 20
109.47439449999999
 40
17.121362000000001
 50
349.99408299999999
 51
23.261212000000011
  0
ARC
  8
_0-0_0
  6
CONTINUOUS
 62
    7
 10
229.6491355
 20
157.52021549999998
 40
114.386152
 50
197.36558300000002
 51
201.15239100000002
  0
ARC
  8
_0-0_0
  6
CONTINUOUS
 62
    7
 10
116.47871149999999
 20
98.266272499999985
 40
8.8069439999999997
 50
52.226211999999997
 51
117.63607500000001
  0
ARC
  8
_0-0_0
  6
CONTINUOUS
 62
    7
 10
119.08359349999999
 20
94.865309499999995
 40
13.342542999999999
 50
88.270571000000018
 51
120.82252200000002
  0
ARC
  8
_0-0_0
  6
CONTINUOUS
 62
    7
 10
101.4192185
 20
114.82475849999999
 40
15.967483
 50
358.09821200000005
 51
37.313463000000041
  0
ARC
  8
_0-0_0
  6
CONTINUOUS
 62
    7
 10
96.86823849999999
 20
112.32967249999999
 40
21.462351999999999
 50
2.4008310000000002
 51
36.200582999999995
  0
ARC
  8
_0-0_0
  6
CONTINUOUS
 62
    7
 10
103.0881105
 20
82.240072499999997
 40
31.130604999999999
 50
72.490505000000013
 51
86.851613000000015
  0
ARC
  8
_0-0_0
  6
CONTINUOUS
 62
    7
 10
115.12982749999999
 20
120.62113749999999
 40
9.1663829999999997
 50
255.02768
 51
285.43926099999999
  0
ARC
  8
_0-0_0
  6
CONTINUOUS
 62
    7
 10
107.15784249999999
 20
91.927580499999991
 40
21.930516999999998
 50
75.868423000000007
 51
96.490915999999999
  0
ARC
  8
_0-0_0
  6
CONTINUOUS
 62
    7
 10
223.55282249999999
 20
83.050665499999994
 40
52.791091000000002
 50
143.42163700000003
 51
163.20689200000004
  0
ARC
  8
_0-0_0
  6
CONTINUOUS
 62
    7
 10
214.41379949999998
 20
90.460844499999993
 40
41.018062
 50
145.043834
 51
168.12109000000001
  0
ARC
  8
_0-0_0
  6
CONTINUOUS
 62
    7
 10
181.82510450000001
 20
215.08704849999998
 40
110.727766
 50
271.42546099999998
 51
275.09901000000002
  0
ARC
  8
_0-0_0
  6
CONTINUOUS
 62
    7
 10
188.43597849999998
 20
121.27099449999999
 40
16.273402999999998
 50
258.04528499999998
 51
280.01505200000003
  0
ARC
  8
_0-0_0
  6
CONTINUOUS
 62
    7
 10
212.87134950000001
 20
97.868925499999989
 40
31.954469
 50
147.74331699999999
 51
166.839077
  0
ARC
  8
_0-0_0
  6
CONTINUOUS
 62
    7
 10
210.23520350000001
 20
101.98534249999999
 40
27.515798
 50
152.17076800000001
 51
169.47425999999999
  0
ARC
  8
_0-0_0
  6
CONTINUOUS
 62
    7
 10
176.69489349999998
 20
124.51531849999998
 40
26.668589999999998
 50
267.29393399999998
 51
292.14303700000005
  0
ARC
  8
_0-0_0
  6
CONTINUOUS
 62
    7
 10
179.64778949999999
 20
116.98960749999999
 40
18.431242000000001
 50
263.68904199999997
 51
293.65357399999999
  0
LINE
  8
_0-0_0
  6
CONTINUOUS
 62
    7
 10
149.50641350000001
 20
78.879988499999996
 11
149.66599049999999
 21
82.392714499999997
  0
LINE
  8
_0-0_0
  6
CONTINUOUS
 62
    7
 10
149.6687905
 20
83.195662499999983
 11
149.27564749999999
 21
85.681967499999985
  0
LINE
  8
_0-0_0
  6
CONTINUOUS
 62
    7
 10
149.62307449999997
 20
85.450094499999992
 11
150.00552149999999
 21
87.580687499999996
  0
LINE
  8
_0-0_0
  6
CONTINUOUS
 62
    7
 10
149.79445349999997
 20
88.507307499999996
 11
149.44125149999999
 21
90.924101499999992
  0
LINE
  8
_0-0_0
  6
CONTINUOUS
 62
    7
 10
148.3699775
 20
90.986662499999994
 11
148.5775965
 21
89.071806499999994
  0
LINE
  8
_0-0_0
  6
CONTINUOUS
 62
    7
 10
148.53205650000001
 20
87.535452499999991
 11
148.56919649999998
 21
86.663000499999995
  0
LINE
  8
_0-0_0
  6
CONTINUOUS
 62
    7
 10
148.24150549999999
 20
84.872076499999991
 11
148.2457785
 21
82.254805499999989
  0
LINE
  8
_0-0_0
  6
CONTINUOUS
 62
    7
 10
148.65549949999999
 20
84.524344499999984
 11
148.5773135
 21
81.304930499999983
  0
LINE
  8
_0-0_0
  6
CONTINUOUS
 62
    7
 10
148.99689949999998
 20
82.563063499999984
 11
148.7308175
 21
79.235716499999995
  0
LINE
  8
_0-0_0
  6
CONTINUOUS
 62
    7
 10
148.71844249999998
 20
87.211050499999985
 11
148.82020349999999
 21
85.666868499999993
  0
LINE
  8
_0-0_0
  6
CONTINUOUS
 62
    7
 10
149.05944549999998
 20
88.978804499999995
 11
148.7298175
 21
86.632002499999984
  0
LINE
  8
_0-0_0
  6
CONTINUOUS
 62
    7
 10
149.33772049999999
 20
88.121611499999986
 11
148.69974250000001
 21
85.690108499999994
  0
LINE
  8
_0-0_0
  6
CONTINUOUS
 62
    7
 10
149.52280949999999
 20
87.426634499999992
 11
149.30291449999999
 21
85.820921499999983
  0
LINE
  8
_0-0_0
  6
CONTINUOUS
 62
    7
 10
149.0650455
 20
90.584677499999984
 11
149.0188575
 21
88.86302049999999
  0
LINE
  8
_0-0_0
  6
CONTINUOUS
 62
    7
 10
148.12793449999998
 20
86.871779499999988
 11
148.09786750000001
 21
85.929899499999991
  0
LINE
  8
_0-0_0
  6
CONTINUOUS
 62
    7
 10
147.68021149999998
 20
85.227644499999997
 11
147.13822649999997
 21
83.43687349999999
  0
ARC
  8
_0-0_0
  6
CONTINUOUS
 62
    7
 10
119.9873025
 20
14.819152499999987
 40
82.504653000000005
 50
59.463729000000001
 51
68.173901000000001
  0
ARC
  8
_0-0_0
  6
CONTINUOUS
 62
    7
 10
170.85093449999999
 20
106.75549149999999
 40
22.855259
 50
247.79552000000001
 51
294.55816399999998
  0
ARC
  8
_0-0_0
  6
CONTINUOUS
 62
    7
 10
170.4361615
 20
105.69547849999999
 40
22.164069999999999
 50
244.97891400000003
 51
296.45277700000003
  0
ARC
  8
_0-0_0
  6
CONTINUOUS
 62
    7
 10
146.36482749999999
 20
68.442175499999991
 40
22.600580000000001
 50
49.436288000000005
 51
80.116500000000002
  0
ARC
  8
_0-0_0
  6
CONTINUOUS
 62
    7
 10
205.69807850000001
 20
98.735685499999988
 40
51.989184999999999
 50
191.03823299999999
 51
204.651264
  0
ARC
  8
_0-0_0
  6
CONTINUOUS
 62
    7
 10
193.62150249999999
 20
92.034269499999994
 40
38.014327000000002
 50
185.48222899999999
 51
203.47889000000001
  0
ARC
  8
_0-0_0
  6
CONTINUOUS
 62
    7
 10
208.5154235
 20
101.30864549999998
 40
46.719816999999999
 50
203.13530400000002
 51
219.08538000000001
  0
ARC
  8
_0-0_0
  6
CONTINUOUS
 62
    7
 10
193.31045949999998
 20
90.257017499999989
 40
27.531839000000002
 50
195.12144299999997
 51
220.878277
  0
ARC
  8
_0-0_0
  6
CONTINUOUS
 62
    7
 10
185.75407849999999
 20
102.01358649999999
 40
22.921683999999999
 50
236.39150800000002
 51
257.13238899999999
  0
ARC
  8
_0-0_0
  6
CONTINUOUS
 62
    7
 10
130.57888550000001
 20
116.18420249999998
 40
28.646978000000001
 50
224.81085400000003
 51
260.97570900000005
  0
ARC
  8
_0-0_0
  6
CONTINUOUS
 62
    7
 10
124.90668249999999
 20
118.06367349999999
 40
30.409842999999999
 50
273.10453999999999
 51
299.78943400000003
  0
LINE
  8
_0-0_0
  6
CONTINUOUS
 62
    7
 10
140.0147145
 20
91.672270499999996
 11
141.8122075
 21
92.458433499999984
  0
LINE
  8
_0-0_0
  6
CONTINUOUS
 62
    7
 10
142.68378949999999
 20
92.743452499999989
 11
143.28695449999998
 21
92.874250499999988
  0
LINE
  8
_0-0_0
  6
CONTINUOUS
 62
    7
 10
144.0108085
 20
93.043562499999993
 11
144.58670549999999
 21
93.035414499999987
  0
LINE
  8
_0-0_0
  6
CONTINUOUS
 62
    7
 10
145.18987749999999
 20
93.166220499999994
 11
146.81171949999998
 21
93.512434499999983
  0
ARC
  8
_0-0_0
  6
CONTINUOUS
 62
    7
 10
128.03944150000001
 20
113.77905149999999
 40
24.838436000000002
 50
223.03305200000003
 51
263.10708299999999
  0
ARC
  8
_0-0_0
  6
CONTINUOUS
 62
    7
 10
124.43638349999999
 20
123.45135349999998
 40
34.850582000000003
 50
274.01825599999995
 51
298.14499699999993
  0
ARC
  8
_0-0_0
  6
CONTINUOUS
 62
    7
 10
112.01967449999999
 20
110.40569949999998
 40
25.666132000000001
 50
271.08736699999997
 51
297.64450799999997
  0
ARC
  8
_0-0_0
  6
CONTINUOUS
 62
    7
 10
114.17378749999999
 20
113.32957249999998
 40
28.779874
 50
267.29235
 51
291.85860000000002
  0
ARC
  8
_0-0_0
  6
CONTINUOUS
 62
    7
 10
99.633459499999987
 20
115.26690549999999
 40
44.276470000000003
 50
307.97292900000002
 51
323.73094099999997
  0
ARC
  8
_0-0_0
  6
CONTINUOUS
 62
    7
 10
110.83614949999999
 20
106.59580849999999
 40
30.765037
 50
302.366601
 51
325.71653099999997
  0
LINE
  8
_0-0_0
  6
CONTINUOUS
 62
    7
 10
143.52763149999998
 20
65.859847499999987
 11
145.89585649999998
 21
65.15551649999999
  0
LINE
  8
_0-0_0
  6
CONTINUOUS
 62
    7
 10
145.97637649999999
 20
65.201781499999996
 11
147.9155705
 21
64.374251499999986
  0
LINE
  8
_0-0_0
  6
CONTINUOUS
 62
    7
 10
143.8144815
 20
63.620673499999995
 11
145.23512749999998
 21
63.882117499999993
  0
LINE
  8
_0-0_0
  6
CONTINUOUS
 62
    7
 10
145.36890149999999
 20
63.835692499999993
 11
147.11077649999999
 21
64.035140499999983
  0
LINE
  8
_0-0_0
  6
CONTINUOUS
 62
    7
 10
147.2445505
 20
63.988715499999984
 11
147.4715095
 21
63.780089499999988
  0
LINE
  8
_0-0_0
  6
CONTINUOUS
 62
    7
 10
143.9278765
 20
65.411757499999993
 11
144.3272685
 21
64.716612499999997
  0
LINE
  8
_0-0_0
  6
CONTINUOUS
 62
    7
 10
144.35173549999999
 20
64.052626499999988
 11
144.29719249999999
 21
63.774725499999988
  0
LINE
  8
_0-0_0
  6
CONTINUOUS
 62
    7
 10
143.8255365
 20
74.475767499999989
 11
145.38379449999999
 21
71.949988499999989
  0
LINE
  8
_0-0_0
  6
CONTINUOUS
 62
    7
 10
145.38379449999999
 20
71.949988499999989
 11
146.72067749999999
 21
71.23870749999999
  0
LINE
  8
_0-0_0
  6
CONTINUOUS
 62
    7
 10
146.9349795
 20
71.238547499999996
 11
147.63004849999999
 21
70.836562499999985
  0
LINE
  8
_0-0_0
  6
CONTINUOUS
 62
    7
 10
147.72323349999999
 20
70.674361499999989
 11
148.26906349999999
 21
69.724333499999986
  0
LINE
  8
_0-0_0
  6
CONTINUOUS
 62
    7
 10
147.8222025
 20
68.32723949999999
 11
147.41015349999998
 21
69.230849499999991
  0
LINE
  8
_0-0_0
  6
CONTINUOUS
 62
    7
 10
147.21046150000001
 20
69.57842149999999
 11
146.62275449999999
 21
70.042090499999986
  0
LINE
  8
_0-0_0
  6
CONTINUOUS
 62
    7
 10
146.12737749999999
 20
70.096503499999983
 11
145.31184150000001
 21
70.521735499999991
  0
LINE
  8
_0-0_0
  6
CONTINUOUS
 62
    7
 10
145.31184150000001
 20
70.521735499999991
 11
144.65542349999998
 21
70.483626499999986
  0
LINE
  8
_0-0_0
  6
CONTINUOUS
 62
    7
 10
144.4142885
 20
70.468359499999991
 11
143.75785550000001
 21
70.430251499999983
  0
LINE
  8
_0-0_0
  6
CONTINUOUS
 62
    7
 10
144.4900715
 20
69.155814499999991
 11
145.33157849999998
 21
68.498938499999994
  0
LINE
  8
_0-0_0
  6
CONTINUOUS
 62
    7
 10
145.79882549999999
 20
68.05852449999999
 11
147.64289650000001
 21
66.837302499999993
  0
LINE
  8
_0-0_0
  6
CONTINUOUS
 62
    7
 10
147.8292745
 20
66.512908499999995
 11
148.13547249999999
 21
65.979956499999986
  0
LINE
  8
_0-0_0
  6
CONTINUOUS
 62
    7
 10
144.8012895
 20
77.748556499999992
 11
145.44030549999999
 21
76.636320499999997
  0
LINE
  8
_0-0_0
  6
CONTINUOUS
 62
    7
 10
146.07932749999998
 20
75.524092499999995
 11
146.35954049999998
 21
75.222777499999992
  0
LINE
  8
_0-0_0
  6
CONTINUOUS
 62
    7
 10
146.84031449999998
 20
74.82095249999999
 11
147.14780949999999
 21
74.658591499999986
  0
LINE
  8
_0-0_0
  6
CONTINUOUS
 62
    7
 10
147.6676535
 20
73.940192499999995
 11
148.0137915
 21
73.337737499999989
  0
LINE
  8
_0-0_0
  6
CONTINUOUS
 62
    7
 10
148.1716055
 20
72.503798499999988
 11
147.34750149999999
 21
74.311018499999989
  0
LINE
  8
_0-0_0
  6
CONTINUOUS
 62
    7
 10
152.37268549999999
 20
83.182486499999996
 11
152.5637945
 21
82.96194349999999
  0
LINE
  8
_0-0_0
  6
CONTINUOUS
 62
    7
 10
152.23649349999999
 20
82.631804499999987
 11
152.25663449999999
 21
82.904371499999996
  0
LINE
  8
_0-0_0
  6
CONTINUOUS
 62
    7
 10
152.43475849999999
 20
81.777800499999984
 11
152.5147225
 21
81.926146499999987
  0
LINE
  8
_0-0_0
  6
CONTINUOUS
 62
    7
 10
153.00198849999998
 20
80.868140499999996
 11
152.91927849999999
 21
81.222006499999992
  0
LINE
  8
_0-0_0
  6
CONTINUOUS
 62
    7
 10
154.1121795
 20
79.246321499999993
 11
154.5888185
 21
79.014738499999993
  0
LINE
  8
_0-0_0
  6
CONTINUOUS
 62
    7
 10
154.5888185
 20
79.014738499999993
 11
154.3718695
 21
78.871939499999996
  0
LINE
  8
_0-0_0
  6
CONTINUOUS
 62
    7
 10
155.0428445
 20
77.666754499999996
 11
155.08968849999999
 21
78.142950499999984
  0
LINE
  8
_0-0_0
  6
CONTINUOUS
 62
    7
 10
151.9598135
 20
79.243613499999995
 11
151.99898250000001
 21
79.353667499999986
  0
LINE
  8
_0-0_0
  6
CONTINUOUS
 62
    7
 10
151.76037350000001
 20
80.050749499999995
 11
151.31657150000001
 21
80.52418449999999
  0
LINE
  8
_0-0_0
  6
CONTINUOUS
 62
    7
 10
151.2767005
 20
81.389952499999993
 11
151.05246449999999
 21
81.728544499999984
  0
LINE
  8
_0-0_0
  6
CONTINUOUS
 62
    7
 10
150.75751249999999
 20
82.655890499999984
 11
150.90564449999999
 21
82.734404499999997
  0
LINE
  8
_0-0_0
  6
CONTINUOUS
 62
    7
 10
150.78979249999998
 20
85.178541499999994
 11
150.97656749999999
 21
84.767225499999995
  0
LINE
  8
_0-0_0
  6
CONTINUOUS
 62
    7
 10
152.00750449999998
 20
81.411726499999986
 11
152.14162149999999
 21
81.488783499999997
  0
LINE
  8
_0-0_0
  6
CONTINUOUS
 62
    7
 10
152.95426649999999
 20
80.617735499999995
 11
152.7915855
 21
80.823256499999985
  0
LINE
  8
_0-0_0
  6
CONTINUOUS
 62
    7
 10
158.2567415
 20
75.502707499999985
 11
158.04432750000001
 21
76.212035499999985
  0
LINE
  8
_0-0_0
  6
CONTINUOUS
 62
    7
 10
160.3468565
 20
76.525160499999984
 11
160.2200325
 21
76.898283499999991
  0
LINE
  8
_0-0_0
  6
CONTINUOUS
 62
    7
 10
160.28219350000001
 20
78.195944499999996
 11
159.7998135
 21
78.99246149999999
  0
LINE
  8
_0-0_0
  6
CONTINUOUS
 62
    7
 10
159.15306249999998
 20
80.776495499999996
 11
159.08905949999999
 21
80.574530499999995
  0
LINE
  8
_0-0_0
  6
CONTINUOUS
 62
    7
 10
158.99022049999999
 20
81.51705849999999
 11
159.72540049999998
 21
81.252318499999987
  0
LINE
  8
_0-0_0
  6
CONTINUOUS
 62
    7
 10
162.12990249999999
 20
76.523825499999987
 11
162.17022449999999
 21
76.836027499999986
  0
LINE
  8
_0-0_0
  6
CONTINUOUS
 62
    7
 10
165.9815035
 20
77.041968499999996
 11
166.11004349999999
 21
77.071226499999995
  0
LINE
  8
_0-0_0
  6
CONTINUOUS
 62
    7
 10
165.0291335
 20
78.176337499999988
 11
165.20541850000001
 21
78.15701949999999
  0
LINE
  8
_0-0_0
  6
CONTINUOUS
 62
    7
 10
163.2686325
 20
80.159544499999996
 11
163.60388649999999
 21
79.622053499999993
  0
LINE
  8
_0-0_0
  6
CONTINUOUS
 62
    7
 10
161.97125349999999
 20
81.158446499999997
 11
162.44815149999999
 21
80.900564499999987
  0
LINE
  8
_0-0_0
  6
CONTINUOUS
 62
    7
 10
159.12944949999999
 20
82.292464499999994
 11
159.3821805
 21
82.393080499999996
  0
LINE
  8
_0-0_0
  6
CONTINUOUS
 62
    7
 10
160.4730615
 20
81.503485499999996
 11
160.7668425
 21
81.449286499999985
  0
LINE
  8
_0-0_0
  6
CONTINUOUS
 62
    7
 10
161.7373245
 20
80.312125499999993
 11
161.61317550000001
 21
80.450583499999993
  0
LINE
  8
_0-0_0
  6
CONTINUOUS
 62
    7
 10
162.50928249999998
 20
78.525725499999993
 11
162.59994949999998
 21
78.577811499999996
  0
LINE
  8
_0-0_0
  6
CONTINUOUS
 62
    7
 10
163.3355225
 20
77.010008499999984
 11
163.23567650000001
 21
77.47132049999999
  0
LINE
  8
_0-0_0
  6
CONTINUOUS
 62
    7
 10
164.1831675
 20
76.365546499999994
 11
163.65588149999999
 21
76.530035499999997
  0
LINE
  8
_0-0_0
  6
CONTINUOUS
 62
    7
 10
166.92118549999998
 20
75.173544499999991
 11
166.83862049999999
 21
75.081511499999991
  0
LINE
  8
_0-0_0
  6
CONTINUOUS
 62
    7
 10
166.83862049999999
 20
75.081511499999991
 11
166.98469249999999
 21
74.985388499999985
  0
LINE
  8
_0-0_0
  6
CONTINUOUS
 62
    7
 10
164.42144149999999
 20
74.732428499999983
 11
164.30072150000001
 21
75.48654049999999
  0
LINE
  8
_0-0_0
  6
CONTINUOUS
 62
    7
 10
157.7482655
 20
84.250822499999984
 11
157.8910195
 21
84.212248499999987
  0
LINE
  8
_0-0_0
  6
CONTINUOUS
 62
    7
 10
159.79649849999998
 20
81.686308499999996
 11
160.49586549999998
 21
82.007170499999987
  0
LINE
  8
_0-0_0
  6
CONTINUOUS
 62
    7
 10
161.6161395
 20
78.271918499999984
 11
161.79095150000001
 21
77.890028499999985
  0
LINE
  8
_0-0_0
  6
CONTINUOUS
 62
    7
 10
149.7616855
 20
83.155768499999994
 11
149.65589649999998
 21
84.029906499999996
  0
LINE
  8
_0-0_0
  6
CONTINUOUS
 62
    7
 10
150.92588549999999
 20
82.440443499999986
 11
150.75751249999999
 21
82.655890499999984
  0
LINE
  8
_0-0_0
  6
CONTINUOUS
 62
    7
 10
151.19277649999998
 20
81.122038499999988
 11
151.3426035
 21
81.016524499999989
  0
LINE
  8
_0-0_0
  6
CONTINUOUS
 62
    7
 10
150.44803350000001
 20
79.623793499999991
 11
150.4394815
 21
79.483427499999991
  0
LINE
  8
_0-0_0
  6
CONTINUOUS
 62
    7
 10
150.39877849999999
 20
80.175276499999995
 11
150.24175750000001
 21
80.161055499999989
  0
LINE
  8
_0-0_0
  6
CONTINUOUS
 62
    7
 10
150.66483849999997
 20
81.264693499999993
 11
150.67895249999998
 21
80.699629499999986
  0
LINE
  8
_0-0_0
  6
CONTINUOUS
 62
    7
 10
153.6328255
 20
79.425200499999988
 11
153.23969749999998
 21
79.577566499999989
  0
LINE
  8
_0-0_0
  6
CONTINUOUS
 62
    7
 10
156.03284149999999
 20
76.990095499999995
 11
156.0279175
 21
76.898062499999995
  0
LINE
  8
_0-0_0
  6
CONTINUOUS
 62
    7
 10
169.5137455
 20
79.740347499999984
 11
169.62128949999999
 21
79.711287499999983
  0
LINE
  8
_0-0_0
  6
CONTINUOUS
 62
    7
 10
170.03461149999998
 20
78.523260499999992
 11
170.08305049999998
 21
78.772436499999984
  0
LINE
  8
_0-0_0
  6
CONTINUOUS
 62
    7
 10
170.7452025
 20
78.217947499999994
 11
170.87202550000001
 21
77.844832499999995
  0
LINE
  8
_0-0_0
  6
CONTINUOUS
 62
    7
 10
171.95667349999999
 20
77.040854499999995
 11
172.28116649999998
 21
76.389822499999994
  0
LINE
  8
_0-0_0
  6
CONTINUOUS
 62
    7
 10
172.8534665
 20
75.502928499999996
 11
172.8663645
 21
75.690375499999988
  0
LINE
  8
_0-0_0
  6
CONTINUOUS
 62
    7
 10
171.9637845
 20
76.197577499999994
 11
172.0301905
 21
76.369521499999991
  0
LINE
  8
_0-0_0
  6
CONTINUOUS
 62
    7
 10
171.1230635
 20
76.545409499999991
 11
171.44371849999999
 21
76.924536499999988
  0
LINE
  8
_0-0_0
  6
CONTINUOUS
 62
    7
 10
170.33503049999999
 20
77.224127499999994
 11
170.20712349999999
 21
77.44962249999999
  0
LINE
  8
_0-0_0
  6
CONTINUOUS
 62
    7
 10
169.74644549999999
 20
79.211668499999988
 11
169.46313549999999
 21
78.819304499999987
  0
LINE
  8
_0-0_0
  6
CONTINUOUS
 62
    7
 10
151.65022049999999
 20
91.138685499999994
 11
151.8265045
 21
91.119368499999993
  0
LINE
  8
_0-0_0
  6
CONTINUOUS
 62
    7
 10
154.50903049999999
 20
90.564459499999984
 11
154.4376805
 21
90.688658499999988
  0
LINE
  8
_0-0_0
  6
CONTINUOUS
 62
    7
 10
155.72613250000001
 20
89.478148499999989
 11
155.9378945
 21
89.632857499999986
  0
LINE
  8
_0-0_0
  6
CONTINUOUS
 62
    7
 10
158.37581349999999
 20
89.147154499999985
 11
158.03419249999999
 21
88.620543499999997
  0
LINE
  8
_0-0_0
  6
CONTINUOUS
 62
    7
 10
159.70505649999998
 20
88.27397049999999
 11
159.81565549999999
 21
88.081465499999993
  0
LINE
  8
_0-0_0
  6
CONTINUOUS
 62
    7
 10
161.07840449999998
 20
87.381468499999997
 11
160.96912850000001
 21
87.31867849999999
  0
LINE
  8
_0-0_0
  6
CONTINUOUS
 62
    7
 10
162.5523575
 20
87.14474349999999
 11
162.78643549999998
 21
87.024840499999996
  0
LINE
  8
_0-0_0
  6
CONTINUOUS
 62
    7
 10
163.23428050000001
 20
87.10209549999999
 11
163.40133750000001
 21
87.141936499999986
  0
LINE
  8
_0-0_0
  6
CONTINUOUS
 62
    7
 10
161.66799649999999
 20
88.223997499999996
 11
161.67002550000001
 21
88.421751499999985
  0
LINE
  8
_0-0_0
  6
CONTINUOUS
 62
    7
 10
157.36913749999999
 20
90.111570499999985
 11
157.59892049999999
 21
90.154394499999995
  0
LINE
  8
_0-0_0
  6
CONTINUOUS
 62
    7
 10
156.0385335
 20
90.653647499999991
 11
156.6864175
 21
90.655890499999984
  0
LINE
  8
_0-0_0
  6
CONTINUOUS
 62
    7
 10
158.65481249999999
 20
89.869078499999986
 11
158.53670649999998
 21
89.470884499999997
  0
LINE
  8
_0-0_0
  6
CONTINUOUS
 62
    7
 10
160.49618649999999
 20
88.472456499999993
 11
160.63466349999999
 21
88.286078499999988
  0
LINE
  8
_0-0_0
  6
CONTINUOUS
 62
    7
 10
161.90797549999999
 20
87.85808449999999
 11
162.2085045
 21
88.030745499999995
  0
LINE
  8
_0-0_0
  6
CONTINUOUS
 62
    7
 10
177.32613449999999
 20
111.47842249999999
 11
177.48754550000001
 21
111.66035349999999
  0
LINE
  8
_0-0_0
  6
CONTINUOUS
 62
    7
 10
177.2072115
 20
110.82866549999999
 11
177.11587950000001
 21
110.98763149999999
  0
LINE
  8
_0-0_0
  6
CONTINUOUS
 62
    7
 10
176.3475995
 20
109.29747649999999
 11
176.5052805
 21
109.17828249999999
  0
LINE
  8
_0-0_0
  6
CONTINUOUS
 62
    7
 10
175.89528749999999
 20
108.01183949999999
 11
175.73750050000001
 21
108.11112849999999
  0
LINE
  8
_0-0_0
  6
CONTINUOUS
 62
    7
 10
175.42791449999999
 20
107.17509349999999
 11
175.3061075
 21
107.15136549999998
  0
LINE
  8
_0-0_0
  6
CONTINUOUS
 62
    7
 10
175.21343350000001
 20
105.76016849999999
 11
175.12281149999998
 21
105.91789049999998
  0
LINE
  8
_0-0_0
  6
CONTINUOUS
 62
    7
 10
174.9630865
 20
104.41052849999998
 11
174.90458050000001
 21
104.51235849999999
  0
LINE
  8
_0-0_0
  6
CONTINUOUS
 62
    7
 10
194.12112149999999
 20
111.01053449999999
 11
194.56351949999998
 21
111.43649149999999
  0
LINE
  8
_0-0_0
  6
CONTINUOUS
 62
    7
 10
193.60478649999999
 20
110.73042149999999
 11
194.12112149999999
 21
111.01053449999999
  0
LINE
  8
_0-0_0
  6
CONTINUOUS
 62
    7
 10
192.60521349999999
 20
110.26513549999999
 11
192.70581449999997
 21
110.01238849999999
  0
LINE
  8
_0-0_0
  6
CONTINUOUS
 62
    7
 10
192.6987345
 20
108.93797149999999
 11
192.6714365
 21
109.14362149999999
  0
LINE
  8
_0-0_0
  6
CONTINUOUS
 62
    7
 10
192.64619149999999
 20
108.60094249999999
 11
191.76127349999999
 21
108.21917549999999
  0
LINE
  8
_0-0_0
  6
CONTINUOUS
 62
    7
 10
175.51538149999999
 20
92.877897499999989
 11
175.56937449999998
 21
93.031157499999992
  0
LINE
  8
_0-0_0
  6
CONTINUOUS
 62
    7
 10
175.13847849999999
 20
92.694395499999985
 11
175.40364549999998
 21
92.790602499999991
  0
LINE
  8
_0-0_0
  6
CONTINUOUS
 62
    7
 10
174.41016450000001
 20
90.701811499999991
 11
174.40017749999998
 21
90.796812499999987
  0
LINE
  8
_0-0_0
  6
CONTINUOUS
 62
    7
 10
175.28602649999999
 20
91.664213499999988
 11
174.8488935
 21
91.413054499999987
  0
LINE
  8
_0-0_0
  6
CONTINUOUS
 62
    7
 10
174.18662749999999
 20
93.388029499999988
 11
174.3558285
 21
93.047499499999986
  0
LINE
  8
_0-0_0
  6
CONTINUOUS
 62
    7
 10
174.52202349999999
 20
93.767363499999988
 11
175.12876549999999
 21
94.036665499999984
  0
LINE
  8
_0-0_0
  6
CONTINUOUS
 62
    7
 10
176.46031649999998
 20
95.594557499999993
 11
176.90631550000001
 21
95.404814499999986
  0
LINE
  8
_0-0_0
  6
CONTINUOUS
 62
    7
 10
176.87991049999999
 20
93.012739499999995
 11
176.8685155
 21
93.331572499999993
  0
LINE
  8
_0-0_0
  6
CONTINUOUS
 62
    7
 10
176.5011145
 20
92.884306499999994
 11
176.61171450000001
 21
92.691801499999997
  0
LINE
  8
_0-0_0
  6
CONTINUOUS
 62
    7
 10
186.2103315
 20
86.700194499999995
 11
186.78974649999998
 21
86.798544499999991
  0
LINE
  8
_0-0_0
  6
CONTINUOUS
 62
    7
 10
187.0249225
 20
86.056990499999984
 11
186.0229305
 21
85.752379499999989
  0
LINE
  8
_0-0_0
  6
CONTINUOUS
 62
    7
 10
169.20592249999999
 20
86.253248499999984
 11
168.55372749999998
 21
86.724249499999985
  0
LINE
  8
_0-0_0
  6
CONTINUOUS
 62
    7
 10
171.62056050000001
 20
85.949507499999996
 11
171.02821449999999
 21
85.972380499999986
  0
LINE
  8
_0-0_0
  6
CONTINUOUS
 62
    7
 10
173.65133750000001
 20
86.111593499999984
 11
172.93884349999999
 21
86.024321499999985
  0
LINE
  8
_0-0_0
  6
CONTINUOUS
 62
    7
 10
174.39045049999999
 20
86.22503549999999
 11
173.65133750000001
 21
86.111593499999984
  0
LINE
  8
_0-0_0
  6
CONTINUOUS
 62
    7
 10
175.14946449999999
 20
86.359404499999997
 11
174.39045049999999
 21
86.22503549999999
  0
LINE
  8
_0-0_0
  6
CONTINUOUS
 62
    7
 10
177.4785085
 20
86.835890499999991
 11
176.70021549999998
 21
86.670103499999996
  0
LINE
  8
_0-0_0
  6
CONTINUOUS
 62
    7
 10
180.45456049999999
 20
87.446165499999992
 11
179.74458349999998
 21
87.312056499999983
  0
LINE
  8
_0-0_0
  6
CONTINUOUS
 62
    7
 10
158.62471549999998
 20
92.48308449999999
 11
158.31287449999999
 21
92.660704499999994
  0
LINE
  8
_0-0_0
  6
CONTINUOUS
 62
    7
 10
162.5069895
 20
92.493574499999994
 11
161.59391549999998
 21
92.66150549999999
  0
LINE
  8
_0-0_0
  6
CONTINUOUS
 62
    7
 10
163.39025949999998
 20
92.308523499999993
 11
162.5069895
 21
92.493574499999994
  0
LINE
  8
_0-0_0
  6
CONTINUOUS
 62
    7
 10
166.1875015
 20
92.72018349999999
 11
165.87246049999999
 21
92.365736499999997
  0
LINE
  8
_0-0_0
  6
CONTINUOUS
 62
    7
 10
166.8995985
 20
93.36385949999999
 11
166.45214949999999
 21
92.736792499999993
  0
LINE
  8
_0-0_0
  6
CONTINUOUS
 62
    7
 10
168.1656275
 20
94.003691499999988
 11
167.61530449999998
 21
93.679258499999989
  0
LINE
  8
_0-0_0
  6
CONTINUOUS
 62
    7
 10
169.4266715
 20
94.407759499999983
 11
168.71939950000001
 21
94.20125449999999
  0
LINE
  8
_0-0_0
  6
CONTINUOUS
 62
    7
 10
170.67847949999998
 20
95.636061499999997
 11
170.07231250000001
 21
95.283918499999984
  0
LINE
  8
_0-0_0
  6
CONTINUOUS
 62
    7
 10
152.95658650000001
 20
99.521254499999984
 11
152.56007149999999
 21
99.984808499999986
  0
LINE
  8
_0-0_0
  6
CONTINUOUS
 62
    7
 10
156.6137435
 20
97.763731499999992
 11
156.01648449999999
 21
97.876204499999986
  0
LINE
  8
_0-0_0
  6
CONTINUOUS
 62
    7
 10
159.1491905
 20
97.667036499999995
 11
158.4989635
 21
97.644178499999995
  0
LINE
  8
_0-0_0
  6
CONTINUOUS
 62
    7
 10
161.78430649999999
 20
97.99308649999999
 11
161.1260235
 21
97.882338499999989
  0
LINE
  8
_0-0_0
  6
CONTINUOUS
 62
    7
 10
163.71804549999999
 20
98.400778499999987
 11
163.08315049999999
 21
98.255293499999993
  0
LINE
  8
_0-0_0
  6
CONTINUOUS
 62
    7
 10
165.53110949999999
 20
98.85937349999999
 11
164.9448405
 21
98.705793499999984
  0
LINE
  8
_0-0_0
  6
CONTINUOUS
 62
    7
 10
168.0959215
 20
100.0158065
 11
167.73711449999999
 21
99.774961499999989
  0
LINE
  8
_0-0_0
  6
CONTINUOUS
 62
    7
 10
151.59020749999999
 20
108.06475649999999
 11
151.55917849999997
 21
108.42352149999999
  0
LINE
  8
_0-0_0
  6
CONTINUOUS
 62
    7
 10
154.29192849999998
 20
107.65467649999999
 11
154.3788275
 21
107.79379849999999
  0
LINE
  8
_0-0_0
  6
CONTINUOUS
 62
    7
 10
161.82943849999998
 20
106.54424849999999
 11
161.8351485
 21
106.45668649999999
  0
LINE
  8
_0-0_0
  6
CONTINUOUS
 62
    7
 10
161.82152249999999
 20
107.87765349999999
 11
162.3541535
 21
108.22991749999998
  0
LINE
  8
_0-0_0
  6
CONTINUOUS
 62
    7
 10
161.56879549999999
 20
109.81537449999999
 11
161.7320455
 21
110.05451849999999
  0
LINE
  8
_0-0_0
  6
CONTINUOUS
 62
    7
 10
162.60291050000001
 20
109.80658549999998
 11
161.91419350000001
 21
109.26884349999999
  0
LINE
  8
_0-0_0
  6
CONTINUOUS
 62
    7
 10
162.3541535
 20
108.22991749999998
 11
163.1449025
 21
108.9782695
  0
LINE
  8
_0-0_0
  6
CONTINUOUS
 62
    7
 10
163.27050850000001
 20
107.68438549999999
 11
163.74114750000001
 21
107.96633749999999
  0
LINE
  8
_0-0_0
  6
CONTINUOUS
 62
    7
 10
165.16611549999999
 20
107.25713949999999
 11
165.49707549999999
 21
107.40269349999998
  0
LINE
  8
_0-0_0
  6
CONTINUOUS
 62
    7
 10
166.93454449999999
 20
106.74362049999999
 11
166.91833249999999
 21
106.61371449999999
  0
LINE
  8
_0-0_0
  6
CONTINUOUS
 62
    7
 10
169.87847649999998
 20
107.13671749999999
 11
170.2186705
 21
106.45835749999999
  0
LINE
  8
_0-0_0
  6
CONTINUOUS
 62
    7
 10
170.55536749999999
 20
106.98499949999999
 11
170.88132149999998
 21
107.52932549999998
  0
LINE
  8
_0-0_0
  6
CONTINUOUS
 62
    7
 10
170.34340749999998
 20
105.53401049999999
 11
170.07601249999999
 21
105.93041049999999
  0
LINE
  8
_0-0_0
  6
CONTINUOUS
 62
    7
 10
169.56351949999998
 20
105.47407349999999
 11
169.35887650000001
 21
105.08560749999999
  0
LINE
  8
_0-0_0
  6
CONTINUOUS
 62
    7
 10
171.60076649999999
 20
106.41062749999999
 11
171.33364949999998
 21
105.99862549999999
  0
LINE
  8
_0-0_0
  6
CONTINUOUS
 62
    7
 10
171.8039335
 20
106.86112849999999
 11
171.60076649999999
 21
106.41062749999999
  0
LINE
  8
_0-0_0
  6
CONTINUOUS
 62
    7
 10
172.13700949999998
 20
108.54167749999999
 11
172.30754149999999
 21
107.48010049999999
  0
LINE
  8
_0-0_0
  6
CONTINUOUS
 62
    7
 10
172.38135649999998
 20
109.48483149999998
 11
172.13700949999998
 21
108.54167749999999
  0
LINE
  8
_0-0_0
  6
CONTINUOUS
 62
    7
 10
173.84201949999999
 20
109.6996595
 11
173.49165049999999
 21
109.9443345
  0
LINE
  8
_0-0_0
  6
CONTINUOUS
 62
    7
 10
173.89335349999999
 20
110.3089275
 11
173.63010850000001
 21
110.06849549999998
  0
LINE
  8
_0-0_0
  6
CONTINUOUS
 62
    7
 10
174.0777405
 20
111.4571285
 11
173.95822649999999
 21
111.28276649999999
  0
LINE
  8
_0-0_0
  6
CONTINUOUS
 62
    7
 10
175.0171895
 20
112.35201149999999
 11
174.89842349999998
 21
113.29469149999998
  0
LINE
  8
_0-0_0
  6
CONTINUOUS
 62
    7
 10
176.2840085
 20
114.46239349999999
 11
176.2774325
 21
114.30997349999998
  0
LINE
  8
_0-0_0
  6
CONTINUOUS
 62
    7
 10
177.72128749999999
 20
113.11939049999999
 11
177.3647775
 21
112.88316149999999
  0
LINE
  8
_0-0_0
  6
CONTINUOUS
 62
    7
 10
178.82520349999999
 20
112.20423749999999
 11
178.6896375
 21
112.44019149999998
  0
LINE
  8
_0-0_0
  6
CONTINUOUS
 62
    7
 10
178.55905250000001
 20
112.90035049999999
 11
178.39632849999998
 21
112.89605549999999
  0
LINE
  8
_0-0_0
  6
CONTINUOUS
 62
    7
 10
178.09381550000001
 20
113.34496949999999
 11
177.72128749999999
 21
113.11939049999999
  0
LINE
  8
_0-0_0
  6
CONTINUOUS
 62
    7
 10
177.7690015
 20
114.89934349999999
 11
177.73922449999998
 21
114.79303549999999
  0
LINE
  8
_0-0_0
  6
CONTINUOUS
 62
    7
 10
131.77558649999997
 20
104.12846249999998
 11
131.44264749999999
 21
104.51762249999999
  0
LINE
  8
_0-0_0
  6
CONTINUOUS
 62
    7
 10
131.86664350000001
 20
102.56698449999999
 11
132.27792149999999
 21
102.63313149999999
  0
LINE
  8
_0-0_0
  6
CONTINUOUS
 62
    7
 10
131.54169250000001
 20
101.97395149999998
 11
131.61875649999999
 21
101.76219049999999
  0
LINE
  8
_0-0_0
  6
CONTINUOUS
 62
    7
 10
131.17069049999998
 20
102.30918749999999
 11
130.9452565
 21
102.23580749999999
  0
LINE
  8
_0-0_0
  6
CONTINUOUS
 62
    7
 10
133.1411875
 20
101.07594149999998
 11
133.28393349999999
 21
101.11500449999998
  0
LINE
  8
_0-0_0
  6
CONTINUOUS
 62
    7
 10
135.7284755
 20
100.68105949999999
 11
136.21616849999998
 21
100.43597249999999
  0
LINE
  8
_0-0_0
  6
CONTINUOUS
 62
    7
 10
137.3565495
 20
99.811018499999989
 11
137.19188450000001
 21
100.01704249999999
  0
LINE
  8
_0-0_0
  6
CONTINUOUS
 62
    7
 10
138.4628045
 20
99.630629499999984
 11
138.4578075
 21
99.716948499999987
  0
LINE
  8
_0-0_0
  6
CONTINUOUS
 62
    7
 10
139.0602165
 20
99.640226499999983
 11
139.2917765
 21
99.518873499999984
  0
LINE
  8
_0-0_0
  6
CONTINUOUS
 62
    7
 10
140.90270749999999
 20
98.212843499999991
 11
140.66663849999998
 21
98.666899499999985
  0
LINE
  8
_0-0_0
  6
CONTINUOUS
 62
    7
 10
141.76106049999999
 20
98.314512499999992
 11
141.5406165
 21
98.232458499999993
  0
LINE
  8
_0-0_0
  6
CONTINUOUS
 62
    7
 10
144.27874550000001
 20
98.512266499999996
 11
144.3628665
 21
98.023764499999984
  0
LINE
  8
_0-0_0
  6
CONTINUOUS
 62
    7
 10
144.91447149999999
 20
97.405767499999996
 11
144.9306765
 21
97.535673499999987
  0
LINE
  8
_0-0_0
  6
CONTINUOUS
 62
    7
 10
143.29343949999998
 20
99.683851499999989
 11
143.18713149999999
 21
99.713621499999988
  0
LINE
  8
_0-0_0
  6
CONTINUOUS
 62
    7
 10
145.5928935
 20
97.024168499999988
 11
145.73333450000001
 21
96.759626499999996
  0
LINE
  8
_0-0_0
  6
CONTINUOUS
 62
    7
 10
142.38662449999998
 20
98.292341499999992
 11
142.0771005
 21
98.540693499999989
  0
LINE
  8
_0-0_0
  6
CONTINUOUS
 62
    7
 10
144.43059249999999
 20
96.554579499999988
 11
144.28593949999998
 21
96.725859499999984
  0
LINE
  8
_0-0_0
  6
CONTINUOUS
 62
    7
 10
144.75587250000001
 20
101.64068449999999
 11
144.0394565
 21
101.85839649999998
  0
LINE
  8
_0-0_0
  6
CONTINUOUS
 62
    7
 10
145.83719350000001
 20
101.41457249999999
 11
145.28454349999998
 21
101.18625449999999
  0
LINE
  8
_0-0_0
  6
CONTINUOUS
 62
    7
 10
140.27550249999999
 20
102.14217949999998
 11
140.19773649999999
 21
102.27754049999999
  0
LINE
  8
_0-0_0
  6
CONTINUOUS
 62
    7
 10
139.41349550000001
 20
102.09290949999999
 11
139.2338915
 21
102.16976749999999
  0
LINE
  8
_0-0_0
  6
CONTINUOUS
 62
    7
 10
135.1197335
 20
103.07527049999999
 11
134.3442355
 21
103.30975149999999
  0
LINE
  8
_0-0_0
  6
CONTINUOUS
 62
    7
 10
129.70911150000001
 20
105.3206465
 11
129.3185325
 21
105.78979349999999
  0
LINE
  8
_0-0_0
  6
CONTINUOUS
 62
    7
 10
128.02461049999999
 20
107.3593425
 11
127.41399949999999
 21
108.13950149999999
  0
LINE
  8
_0-0_0
  6
CONTINUOUS
 62
    7
 10
127.41399949999999
 20
108.13950149999999
 11
126.81170449999999
 21
108.83245649999999
  0
LINE
  8
_0-0_0
  6
CONTINUOUS
 62
    7
 10
144.74087249999999
 20
101.89965649999999
 11
143.6251805
 21
102.15391349999999
  0
LINE
  8
_0-0_0
  6
CONTINUOUS
 62
    7
 10
142.67167449999999
 20
106.82079949999999
 11
142.0078025
 21
107.50478949999999
  0
LINE
  8
_0-0_0
  6
CONTINUOUS
 62
    7
 10
146.05273149999999
 20
103.36529349999999
 11
146.03210150000001
 21
103.53347649999999
  0
LINE
  8
_0-0_0
  6
CONTINUOUS
 62
    7
 10
147.1835605
 20
100.13493949999999
 11
147.07602449999999
 21
100.16400049999999
  0
LINE
  8
_0-0_0
  6
CONTINUOUS
 62
    7
 10
145.19968949999998
 20
99.028181499999988
 11
145.37597449999998
 21
99.008871499999984
  0
LINE
  8
_0-0_0
  6
CONTINUOUS
 62
    7
 10
146.58962750000001
 20
96.896467499999986
 11
146.64813749999999
 21
96.794630499999997
  0
LINE
  8
_0-0_0
  6
CONTINUOUS
 62
    7
 10
150.6178415
 20
119.94903349999998
 11
150.70850849999999
 21
120.00111949999999
  0
LINE
  8
_0-0_0
  6
CONTINUOUS
 62
    7
 10
150.84241249999999
 20
118.64101249999999
 11
150.64277349999998
 21
117.49064449999999
  0
LINE
  8
_0-0_0
  6
CONTINUOUS
 62
    7
 10
150.96342249999998
 20
115.59855449999999
 11
150.66457149999999
 21
115.85137749999998
  0
LINE
  8
_0-0_0
  6
CONTINUOUS
 62
    7
 10
150.35677849999999
 20
114.23084849999999
 11
150.7116365
 21
114.56192649999998
  0
LINE
  8
_0-0_0
  6
CONTINUOUS
 62
    7
 10
150.0624895
 20
113.20780049999999
 11
149.94762950000001
 21
113.09721249999998
  0
LINE
  8
_0-0_0
  6
CONTINUOUS
 62
    7
 10
150.0175145
 20
112.45519049999999
 11
149.95603649999998
 21
112.38682349999999
  0
LINE
  8
_0-0_0
  6
CONTINUOUS
 62
    7
 10
149.92469549999998
 20
111.50989349999999
 11
150.01406650000001
 21
111.35145449999999
  0
LINE
  8
_0-0_0
  6
CONTINUOUS
 62
    7
 10
149.67876949999999
 20
111.15881149999998
 11
149.70196249999998
 21
110.58080849999999
  0
LINE
  8
_0-0_0
  6
CONTINUOUS
 62
    7
 10
149.7762195
 20
110.05193949999999
 11
149.81226849999999
 21
109.45158249999999
  0
LINE
  8
_0-0_0
  6
CONTINUOUS
 62
    7
 10
149.81226849999999
 20
109.45158249999999
 11
149.7551325
 21
109.41875349999999
  0
LINE
  8
_0-0_0
  6
CONTINUOUS
 62
    7
 10
150.3396425
 20
99.906424499999986
 11
150.1859025
 21
99.408636499999986
  0
LINE
  8
_0-0_0
  6
CONTINUOUS
 62
    7
 10
150.62117549999999
 20
97.87478449999999
 11
150.37415049999998
 21
97.686613499999993
  0
LINE
  8
_0-0_0
  6
CONTINUOUS
 62
    7
 10
150.31001049999998
 20
96.401007499999992
 11
150.1610235
 21
96.214659499999996
  0
LINE
  8
_0-0_0
  6
CONTINUOUS
 62
    7
 10
154.46627549999999
 20
94.743284499999987
 11
154.81944049999998
 21
95.020048499999987
  0
LINE
  8
_0-0_0
  6
CONTINUOUS
 62
    7
 10
156.6070915
 20
94.85452149999999
 11
157.33275749999999
 21
94.961790499999992
  0
LINE
  8
_0-0_0
  6
CONTINUOUS
 62
    7
 10
157.33275749999999
 20
94.961790499999992
 11
158.1091395
 21
95.042097499999997
  0
LINE
  8
_0-0_0
  6
CONTINUOUS
 62
    7
 10
165.68959949999999
 20
96.720511499999986
 11
165.88144449999999
 21
96.875334499999994
  0
LINE
  8
_0-0_0
  6
CONTINUOUS
 62
    7
 10
166.7490325
 20
96.972410499999995
 11
167.31491549999998
 21
97.238081499999993
  0
LINE
  8
_0-0_0
  6
CONTINUOUS
 62
    7
 10
163.5821545
 20
96.119230499999986
 11
163.60426849999999
 21
96.235983499999989
  0
LINE
  8
_0-0_0
  6
CONTINUOUS
 62
    7
 10
167.31491549999998
 20
97.238081499999993
 11
167.90984850000001
 21
97.401495499999996
  0
LINE
  8
_0-0_0
  6
CONTINUOUS
 62
    7
 10
142.55419649999999
 20
98.489408499999996
 11
142.63994349999999
 21
98.282637499999993
  0
LINE
  8
_0-0_0
  6
CONTINUOUS
 62
    7
 10
142.74489349999999
 20
98.076994499999984
 11
142.77331249999997
 21
98.384062499999985
  0
LINE
  8
_0-0_0
  6
CONTINUOUS
 62
    7
 10
144.11255349999999
 20
97.792402499999994
 11
143.91042849999999
 21
97.848066499999987
  0
LINE
  8
_0-0_0
  6
CONTINUOUS
 62
    7
 10
143.89628349999998
 20
98.424673499999983
 11
144.0005085
 21
98.530806499999983
  0
LINE
  8
_0-0_0
  6
CONTINUOUS
 62
    7
 10
143.2799205
 20
99.008757499999987
 11
143.34392349999999
 21
99.210722499999989
  0
LINE
  8
_0-0_0
  6
CONTINUOUS
 62
    7
 10
143.18929850000001
 20
99.166487499999988
 11
143.2799205
 21
99.008757499999987
  0
LINE
  8
_0-0_0
  6
CONTINUOUS
 62
    7
 10
129.70379449999999
 20
104.00849749999999
 11
129.69589049999999
 21
103.81236149999999
  0
LINE
  8
_0-0_0
  6
CONTINUOUS
 62
    7
 10
129.10074349999999
 20
104.28475049999999
 11
129.35276549999998
 21
104.38659549999998
  0
LINE
  8
_0-0_0
  6
CONTINUOUS
 62
    7
 10
128.21617649999999
 20
104.83534849999999
 11
128.4402595
 21
104.88809049999999
  0
LINE
  8
_0-0_0
  6
CONTINUOUS
 62
    7
 10
126.40118149999999
 20
105.5880495
 11
126.33542449999999
 21
105.44952249999999
  0
LINE
  8
_0-0_0
  6
CONTINUOUS
 62
    7
 10
135.70656349999999
 20
82.345160499999992
 11
136.31054449999999
 21
82.650870499999996
  0
LINE
  8
_0-0_0
  6
CONTINUOUS
 62
    7
 10
137.65882649999998
 20
84.495871499999993
 11
137.8184565
 21
84.453779499999996
  0
LINE
  8
_0-0_0
  6
CONTINUOUS
 62
    7
 10
138.44829349999998
 20
84.944487499999994
 11
138.75033350000001
 21
85.390570499999995
  0
LINE
  8
_0-0_0
  6
CONTINUOUS
 62
    7
 10
139.38594549999999
 20
86.380125499999991
 11
139.69282249999998
 21
86.719984499999995
  0
LINE
  8
_0-0_0
  6
CONTINUOUS
 62
    7
 10
139.69282249999998
 20
86.719984499999995
 11
140.09373249999999
 21
86.965170499999985
  0
LINE
  8
_0-0_0
  6
CONTINUOUS
 62
    7
 10
140.64781749999997
 20
88.786650499999993
 11
140.56512950000001
 21
88.752348499999997
  0
LINE
  8
_0-0_0
  6
CONTINUOUS
 62
    7
 10
140.87190049999998
 20
88.839399499999985
 11
140.75399549999997
 21
88.814604499999987
  0
LINE
  8
_0-0_0
  6
CONTINUOUS
 62
    7
 10
141.33108249999998
 20
89.574583499999989
 11
141.9836555
 21
89.889647499999995
  0
LINE
  8
_0-0_0
  6
CONTINUOUS
 62
    7
 10
142.60824350000001
 20
90.279188499999989
 11
143.1452845
 21
90.757300499999985
  0
LINE
  8
_0-0_0
  6
CONTINUOUS
 62
    7
 10
143.1452845
 20
90.757300499999985
 11
143.53519949999998
 21
91.338102499999991
  0
LINE
  8
_0-0_0
  6
CONTINUOUS
 62
    7
 10
144.5652595
 20
88.954443499999996
 11
144.39268249999998
 21
88.766096499999989
  0
LINE
  8
_0-0_0
  6
CONTINUOUS
 62
    7
 10
144.58532450000001
 20
88.430800499999989
 11
144.21014149999999
 21
87.974089499999991
  0
LINE
  8
_0-0_0
  6
CONTINUOUS
 62
    7
 10
143.81197850000001
 20
87.005316499999992
 11
143.72999349999998
 21
87.047407499999991
  0
LINE
  8
_0-0_0
  6
CONTINUOUS
 62
    7
 10
143.13461050000001
 20
86.626051499999988
 11
143.51954449999999
 21
86.792700499999995
  0
LINE
  8
_0-0_0
  6
CONTINUOUS
 62
    7
 10
142.5087565
 20
85.711485499999995
 11
142.32142349999998
 21
85.534468499999988
  0
LINE
  8
_0-0_0
  6
CONTINUOUS
 62
    7
 10
140.3536355
 20
82.344122499999983
 11
140.73383050000001
 21
82.248717499999984
  0
LINE
  8
_0-0_0
  6
CONTINUOUS
 62
    7
 10
140.15495849999999
 20
82.129233499999984
 11
139.97117349999999
 21
82.256529499999985
  0
LINE
  8
_0-0_0
  6
CONTINUOUS
 62
    7
 10
138.7808205
 20
81.162993499999985
 11
138.97398149999998
 21
81.439162499999995
  0
LINE
  8
_0-0_0
  6
CONTINUOUS
 62
    7
 10
137.93655150000001
 20
80.596983499999993
 11
138.0129445
 21
80.142042499999988
  0
LINE
  8
_0-0_0
  6
CONTINUOUS
 62
    7
 10
120.4924295
 20
82.680647499999992
 11
120.29636149999999
 21
82.498648499999987
  0
LINE
  8
_0-0_0
  6
CONTINUOUS
 62
    7
 10
119.4764455
 20
82.376112499999991
 11
119.38868549999999
 21
82.606482499999984
  0
LINE
  8
_0-0_0
  6
CONTINUOUS
 62
    7
 10
118.26066349999999
 20
83.117949499999995
 11
118.18491949999999
 21
83.074431499999989
  0
LINE
  8
_0-0_0
  6
CONTINUOUS
 62
    7
 10
117.70661749999999
 20
82.503943499999991
 11
118.2899985
 21
82.733412499999986
  0
LINE
  8
_0-0_0
  6
CONTINUOUS
 62
    7
 10
117.98032149999999
 20
82.286253499999987
 11
118.0579585
 21
82.363905499999987
  0
LINE
  8
_0-0_0
  6
CONTINUOUS
 62
    7
 10
118.3263525
 20
81.994490499999984
 11
118.4139845
 21
81.899489499999987
  0
LINE
  8
_0-0_0
  6
CONTINUOUS
 62
    7
 10
119.6718195
 20
81.938551499999988
 11
120.3689785
 21
81.831747499999992
  0
LINE
  8
_0-0_0
  6
CONTINUOUS
 62
    7
 10
120.37103049999999
 20
81.641333499999988
 11
120.4337975
 21
81.46595649999999
  0
LINE
  8
_0-0_0
  6
CONTINUOUS
 62
    7
 10
121.00251549999999
 20
81.660551499999997
 11
120.9982275
 21
81.745642499999988
  0
LINE
  8
_0-0_0
  6
CONTINUOUS
 62
    7
 10
122.39017249999999
 20
81.030669499999988
 11
122.43440749999999
 21
80.876044499999992
  0
LINE
  8
_0-0_0
  6
CONTINUOUS
 62
    7
 10
121.34383149999999
 20
80.497252499999988
 11
120.69438749999999
 21
80.100981499999989
  0
LINE
  8
_0-0_0
  6
CONTINUOUS
 62
    7
 10
120.28629849999999
 20
80.267905499999983
 11
119.9845945
 21
80.669386499999987
  0
LINE
  8
_0-0_0
  6
CONTINUOUS
 62
    7
 10
119.52291649999999
 20
80.587477499999991
 11
118.9936345
 21
80.620375499999994
  0
LINE
  8
_0-0_0
  6
CONTINUOUS
 62
    7
 10
117.60521449999999
 20
81.274573499999988
 11
117.4603025
 21
81.627394499999994
  0
LINE
  8
_0-0_0
  6
CONTINUOUS
 62
    7
 10
116.7026195
 20
82.624182499999989
 11
117.06715949999999
 21
82.622175499999983
  0
LINE
  8
_0-0_0
  6
CONTINUOUS
 62
    7
 10
116.35513049999999
 20
83.539496499999984
 11
117.09950049999999
 21
83.967161499999989
  0
LINE
  8
_0-0_0
  6
CONTINUOUS
 62
    7
 10
120.8442135
 20
79.99546749999999
 11
120.92983049999999
 21
79.924063499999988
  0
LINE
  8
_0-0_0
  6
CONTINUOUS
 62
    7
 10
123.2819265
 20
79.745878499999989
 11
122.47188349999999
 21
79.66367249999999
  0
LINE
  8
_0-0_0
  6
CONTINUOUS
 62
    7
 10
124.0368785
 20
78.707884499999992
 11
123.9926505
 21
78.784872499999992
  0
LINE
  8
_0-0_0
  6
CONTINUOUS
 62
    7
 10
124.00813849999999
 20
79.148909499999988
 11
124.17383349999999
 21
79.245756499999985
  0
LINE
  8
_0-0_0
  6
CONTINUOUS
 62
    7
 10
124.37074849999999
 20
79.135893499999995
 11
124.57756549999999
 21
79.342268499999989
  0
LINE
  8
_0-0_0
  6
CONTINUOUS
 62
    7
 10
124.0282725
 20
78.435347499999992
 11
124.14676449999999
 21
78.516630499999991
  0
LINE
  8
_0-0_0
  6
CONTINUOUS
 62
    7
 10
126.31915049999999
 20
78.694388499999988
 11
126.04656749999999
 21
78.493178499999985
  0
LINE
  8
_0-0_0
  6
CONTINUOUS
 62
    7
 10
126.37330449999999
 20
78.623099499999995
 11
126.31915049999999
 21
78.694388499999988
  0
LINE
  8
_0-0_0
  6
CONTINUOUS
 62
    7
 10
126.35623749999999
 20
77.643683499999995
 11
126.6728495
 21
78.081625499999987
  0
LINE
  8
_0-0_0
  6
CONTINUOUS
 62
    7
 10
125.78485649999999
 20
77.450842499999993
 11
125.87618049999999
 21
77.369521499999991
  0
LINE
  8
_0-0_0
  6
CONTINUOUS
 62
    7
 10
126.3898595
 20
77.174071499999997
 11
126.59239749999999
 21
77.232634499999989
  0
LINE
  8
_0-0_0
  6
CONTINUOUS
 62
    7
 10
127.24786949999999
 20
78.32279849999999
 11
127.2651875
 21
78.212157499999989
  0
LINE
  8
_0-0_0
  6
CONTINUOUS
 62
    7
 10
122.68790249999999
 20
80.121466499999997
 11
122.8525145
 21
80.225943499999985
  0
LINE
  8
_0-0_0
  6
CONTINUOUS
 62
    7
 10
123.2353725
 20
81.503065499999991
 11
123.21915949999999
 21
81.373152499999989
  0
LINE
  8
_0-0_0
  6
CONTINUOUS
 62
    7
 10
126.5954725
 20
84.659178499999996
 11
126.39277449999999
 21
84.437010499999985
  0
LINE
  8
_0-0_0
  6
CONTINUOUS
 62
    7
 10
127.80488349999999
 20
85.345778499999994
 11
127.43311849999999
 21
85.018187499999996
  0
LINE
  8
_0-0_0
  6
CONTINUOUS
 62
    7
 10
125.92180449999999
 20
84.963179499999995
 11
126.7360815
 21
85.229422499999984
  0
LINE
  8
_0-0_0
  6
CONTINUOUS
 62
    7
 10
125.14237749999999
 20
84.856093499999986
 11
125.92180449999999
 21
84.963179499999995
  0
LINE
  8
_0-0_0
  6
CONTINUOUS
 62
    7
 10
109.64457549999999
 20
94.446074499999995
 11
109.7639145
 21
94.157850499999995
  0
LINE
  8
_0-0_0
  6
CONTINUOUS
 62
    7
 10
109.53266749999999
 20
94.738569499999997
 11
109.64457549999999
 21
94.446074499999995
  0
LINE
  8
_0-0_0
  6
CONTINUOUS
 62
    7
 10
110.5604305
 20
93.122282499999983
 11
110.7264005
 21
92.793112499999992
  0
LINE
  8
_0-0_0
  6
CONTINUOUS
 62
    7
 10
112.42653449999999
 20
92.240355499999993
 11
112.35304049999999
 21
92.523512499999995
  0
LINE
  8
_0-0_0
  6
CONTINUOUS
 62
    7
 10
112.5949385
 20
91.636732499999994
 11
112.5085965
 21
91.942267499999986
  0
LINE
  8
_0-0_0
  6
CONTINUOUS
 62
    7
 10
113.3491645
 20
89.08198449999999
 11
113.63364249999999
 21
88.977835499999983
  0
LINE
  8
_0-0_0
  6
CONTINUOUS
 62
    7
 10
115.5051855
 20
88.356718499999985
 11
115.4274195
 21
88.492079499999988
  0
LINE
  8
_0-0_0
  6
CONTINUOUS
 62
    7
 10
116.6163845
 20
88.202269499999986
 11
116.19007649999999
 21
88.48426649999999
  0
LINE
  8
_0-0_0
  6
CONTINUOUS
 62
    7
 10
117.32597149999999
 20
88.013670499999989
 11
116.6163845
 21
88.202269499999986
  0
LINE
  8
_0-0_0
  6
CONTINUOUS
 62
    7
 10
118.98038249999999
 20
86.965521499999994
 11
118.73493749999999
 21
87.315092499999992
  0
LINE
  8
_0-0_0
  6
CONTINUOUS
 62
    7
 10
117.5899175
 20
86.746428499999993
 11
117.6253945
 21
86.842802499999991
  0
LINE
  8
_0-0_0
  6
CONTINUOUS
 62
    7
 10
116.81369549999999
 20
86.777846499999995
 11
116.9185775
 21
86.672911499999984
  0
LINE
  8
_0-0_0
  6
CONTINUOUS
 62
    7
 10
114.79706349999999
 20
86.625128499999988
 11
115.28960249999999
 21
86.572813499999995
  0
LINE
  8
_0-0_0
  6
CONTINUOUS
 62
    7
 10
116.4332335
 20
102.94560849999999
 11
117.3249795
 21
102.85377349999999
  0
LINE
  8
_0-0_0
  6
CONTINUOUS
 62
    7
 10
118.87251049999999
 20
102.46835149999998
 11
118.8160305
 21
102.39131049999999
  0
LINE
  8
_0-0_0
  6
CONTINUOUS
 62
    7
 10
117.9498725
 20
103.88738849999999
 11
118.5086345
 21
104.08782849999999
  0
LINE
  8
_0-0_0
  6
CONTINUOUS
 62
    7
 10
118.6014235
 20
103.38296349999999
 11
118.6846975
 21
103.47375349999999
  0
LINE
  8
_0-0_0
  6
CONTINUOUS
 62
    7
 10
119.62950649999999
 20
102.68028849999999
 11
119.99490949999999
 21
102.60778649999999
  0
LINE
  8
_0-0_0
  6
CONTINUOUS
 62
    7
 10
121.6747415
 20
102.38360449999999
 11
121.70203149999999
 21
102.48847849999999
  0
LINE
  8
_0-0_0
  6
CONTINUOUS
 62
    7
 10
121.65489749999999
 20
102.28300349999999
 11
121.6747415
 21
102.38360449999999
  0
LINE
  8
_0-0_0
  6
CONTINUOUS
 62
    7
 10
120.33852949999999
 20
101.52670149999999
 11
120.30875949999999
 21
101.42040849999999
  0
LINE
  8
_0-0_0
  6
CONTINUOUS
 62
    7
 10
119.58035849999999
 20
101.13571049999999
 11
119.7999095
 21
100.61820049999999
  0
LINE
  8
_0-0_0
  6
CONTINUOUS
 62
    7
 10
119.95421349999999
 20
99.654112499999997
 11
120.24180349999999
 21
99.285818499999991
  0
LINE
  8
_0-0_0
  6
CONTINUOUS
 62
    7
 10
123.11562149999999
 20
96.923079499999986
 11
122.24132349999999
 21
97.197096499999986
  0
LINE
  8
_0-0_0
  6
CONTINUOUS
 62
    7
 10
124.2512795
 20
99.448683499999987
 11
124.18421749999999
 21
99.41015449999999
  0
LINE
  8
_0-0_0
  6
CONTINUOUS
 62
    7
 10
123.83760649999999
 20
100.25492749999999
 11
123.78820549999999
 21
100.56518449999999
  0
LINE
  8
_0-0_0
  6
CONTINUOUS
 62
    7
 10
124.34911149999999
 20
100.23171849999999
 11
124.88810549999999
 21
99.407606499999986
  0
LINE
  8
_0-0_0
  6
CONTINUOUS
 62
    7
 10
121.6770375
 20
102.9201035
 11
121.69325049999999
 21
103.05001649999998
  0
LINE
  8
_0-0_0
  6
CONTINUOUS
 62
    7
 10
123.25148549999999
 20
101.19173249999999
 11
123.42354349999999
 21
101.14523949999999
  0
LINE
  8
_0-0_0
  6
CONTINUOUS
 62
    7
 10
123.6738565
 20
100.7670735
 11
123.78747349999999
 21
100.87695149999999
  0
LINE
  8
_0-0_0
  6
CONTINUOUS
 62
    7
 10
125.7880455
 20
98.636877499999983
 11
126.1638545
 21
98.218519499999985
  0
LINE
  8
_0-0_0
  6
CONTINUOUS
 62
    7
 10
128.40794149999999
 20
96.82533149999999
 11
128.5548225
 21
96.926214499999986
  0
LINE
  8
_0-0_0
  6
CONTINUOUS
 62
    7
 10
129.90163150000001
 20
96.137419499999993
 11
130.05442549999998
 21
96.124449499999983
  0
LINE
  8
_0-0_0
  6
CONTINUOUS
 62
    7
 10
125.4784605
 20
96.105200499999995
 11
125.13284849999999
 21
95.990881499999986
  0
LINE
  8
_0-0_0
  6
CONTINUOUS
 62
    7
 10
122.9511845
 20
94.621832499999996
 11
123.94453949999999
 21
94.031309499999992
  0
LINE
  8
_0-0_0
  6
CONTINUOUS
 62
    7
 10
126.8555655
 20
92.466307499999985
 11
126.62576849999999
 21
92.745573499999992
  0
LINE
  8
_0-0_0
  6
CONTINUOUS
 62
    7
 10
126.01246449999999
 20
90.871916499999983
 11
125.70503049999999
 21
91.438604499999997
  0
LINE
  8
_0-0_0
  6
CONTINUOUS
 62
    7
 10
126.26489049999999
 20
92.085653499999992
 11
126.4076365
 21
92.124716499999991
  0
LINE
  8
_0-0_0
  6
CONTINUOUS
 62
    7
 10
128.75402650000001
 20
93.784987499999986
 11
128.4187215
 21
93.592344499999996
  0
LINE
  8
_0-0_0
  6
CONTINUOUS
 62
    7
 10
129.32539149999999
 20
95.585005499999994
 11
129.40186849999998
 21
95.848631499999996
  0
LINE
  8
_0-0_0
  6
CONTINUOUS
 62
    7
 10
111.49319249999999
 20
96.791624499999983
 11
111.98544849999999
 21
95.880186499999994
  0
LINE
  8
_0-0_0
  6
CONTINUOUS
 62
    7
 10
115.19537949999999
 20
96.168470499999984
 11
115.53122549999999
 21
95.375265499999983
  0
LINE
  8
_0-0_0
  6
CONTINUOUS
 62
    7
 10
115.53122549999999
 20
95.375265499999983
 11
115.3990455
 21
95.375319499999989
  0
LINE
  8
_0-0_0
  6
CONTINUOUS
 62
    7
 10
116.90398949999999
 20
92.908293499999985
 11
116.78413949999999
 21
92.884031499999992
  0
LINE
  8
_0-0_0
  6
CONTINUOUS
 62
    7
 10
118.89237749999999
 20
91.77618249999999
 11
118.6483815
 21
91.812735499999988
  0
LINE
  8
_0-0_0
  6
CONTINUOUS
 62
    7
 10
118.45247449999999
 20
91.883520499999989
 11
118.89237749999999
 21
91.77618249999999
  0
LINE
  8
_0-0_0
  6
CONTINUOUS
 62
    7
 10
121.78895349999999
 20
90.472075499999988
 11
121.58064049999999
 21
90.823172499999984
  0
LINE
  8
_0-0_0
  6
CONTINUOUS
 62
    7
 10
124.79578149999999
 20
92.759588499999992
 11
124.64615449999999
 21
92.629027499999992
  0
LINE
  8
_0-0_0
  6
CONTINUOUS
 62
    7
 10
120.31429849999999
 20
90.853788499999993
 11
119.5410055
 21
91.299818499999986
  0
LINE
  8
_0-0_0
  6
CONTINUOUS
 62
    7
 10
121.58064049999999
 20
90.823172499999984
 11
121.18818449999999
 21
90.908232499999997
  0
LINE
  8
_0-0_0
  6
CONTINUOUS
 62
    7
 10
124.21898449999999
 20
89.945540499999993
 11
123.69479949999999
 21
90.001166499999997
  0
LINE
  8
_0-0_0
  6
CONTINUOUS
 62
    7
 10
125.7734655
 20
90.822142499999984
 11
125.6286375
 21
90.91897449999999
  0
LINE
  8
_0-0_0
  6
CONTINUOUS
 62
    7
 10
125.74493149999999
 20
90.716559499999988
 11
125.8655065
 21
90.506697499999987
  0
LINE
  8
_0-0_0
  6
CONTINUOUS
 62
    7
 10
110.58728549999999
 20
92.802382499999993
 11
109.85120149999999
 21
92.761061499999997
  0
LINE
  8
_0-0_0
  6
CONTINUOUS
 62
    7
 10
108.3102935
 20
111.51715649999998
 11
108.4381925
 21
111.3692995
  0
LINE
  8
_0-0_0
  6
CONTINUOUS
 62
    7
 10
108.85020249999999
 20
111.04603449999999
 11
109.00907749999999
 21
111.17201049999998
  0
LINE
  8
_0-0_0
  6
CONTINUOUS
 62
    7
 10
111.41666249999999
 20
109.68116649999999
 11
111.11791049999999
 21
109.96540649999999
  0
LINE
  8
_0-0_0
  6
CONTINUOUS
 62
    7
 10
114.8477915
 20
108.67428449999998
 11
114.7402855
 21
108.45892149999999
  0
LINE
  8
_0-0_0
  6
CONTINUOUS
 62
    7
 10
115.50766549999999
 20
108.3249805
 11
115.20881449999999
 21
108.12353349999999
  0
LINE
  8
_0-0_0
  6
CONTINUOUS
 62
    7
 10
116.09559449999999
 20
108.36543149999999
 11
115.90467649999999
 21
108.49358949999998
  0
LINE
  8
_0-0_0
  6
CONTINUOUS
 62
    7
 10
114.8691695
 20
107.88380249999999
 11
114.45239849999999
 21
108.04572949999999
  0
LINE
  8
_0-0_0
  6
CONTINUOUS
 62
    7
 10
114.36128749999999
 20
107.50280649999999
 11
113.70979849999999
 21
108.29466049999999
  0
LINE
  8
_0-0_0
  6
CONTINUOUS
 62
    7
 10
113.28759549999999
 20
108.41712749999999
 11
113.4311355
 21
108.18740649999999
  0
LINE
  8
_0-0_0
  6
CONTINUOUS
 62
    7
 10
112.85503949999999
 20
108.3304965
 11
112.51701949999999
 21
108.53932749999998
  0
LINE
  8
_0-0_0
  6
CONTINUOUS
 62
    7
 10
109.89364449999999
 20
108.97016749999999
 11
109.1763515
 21
109.23559449999999
  0
LINE
  8
_0-0_0
  6
CONTINUOUS
 62
    7
 10
108.29345549999999
 20
109.68060149999999
 11
108.27276449999999
 21
110.09324449999998
  0
LINE
  8
_0-0_0
  6
CONTINUOUS
 62
    7
 10
107.68394249999999
 20
110.74435249999999
 11
107.8074855
 21
110.78229349999999
  0
LINE
  8
_0-0_0
  6
CONTINUOUS
 62
    7
 10
107.2537825
 20
111.84671649999999
 11
106.52479349999999
 21
112.63534349999999
  0
LINE
  8
_0-0_0
  6
CONTINUOUS
 62
    7
 10
109.82082149999999
 20
111.21390349999999
 11
110.18895549999999
 21
111.34940949999999
  0
LINE
  8
_0-0_0
  6
CONTINUOUS
 62
    7
 10
111.3454345
 20
111.12188549999999
 11
111.57674949999999
 21
110.8831465
  0
LINE
  8
_0-0_0
  6
CONTINUOUS
 62
    7
 10
113.73953049999999
 20
109.25490449999999
 11
113.71557449999999
 21
108.78195049999999
  0
LINE
  8
_0-0_0
  6
CONTINUOUS
 62
    7
 10
111.1430115
 20
107.43771949999999
 11
110.1928995
 21
107.62143549999999
  0
LINE
  8
_0-0_0
  6
CONTINUOUS
 62
    7
 10
119.3404975
 20
114.28654349999999
 11
119.59251949999999
 21
114.38839549999999
  0
LINE
  8
_0-0_0
  6
CONTINUOUS
 62
    7
 10
119.51904049999999
 20
113.14201949999999
 11
119.77006349999999
 21
112.84025449999999
  0
LINE
  8
_0-0_0
  6
CONTINUOUS
 62
    7
 10
121.11208149999999
 20
111.59116949999999
 11
121.0573405
 21
111.52832649999999
  0
LINE
  8
_0-0_0
  6
CONTINUOUS
 62
    7
 10
121.19219749999999
 20
111.29361549999999
 11
121.2905325
 21
111.02472549999999
  0
LINE
  8
_0-0_0
  6
CONTINUOUS
 62
    7
 10
121.36130349999999
 20
110.76640149999999
 11
121.39127149999999
 21
110.63662549999999
  0
LINE
  8
_0-0_0
  6
CONTINUOUS
 62
    7
 10
119.59649449999999
 20
111.78252249999998
 11
119.37718749999999
 21
112.12395349999998
  0
LINE
  8
_0-0_0
  6
CONTINUOUS
 62
    7
 10
119.28294149999999
 20
113.45236049999998
 11
119.51904049999999
 21
113.14201949999999
  0
LINE
  8
_0-0_0
  6
CONTINUOUS
 62
    7
 10
105.2066325
 20
119.95766249999998
 11
105.3762795
 21
119.4985945
  0
LINE
  8
_0-0_0
  6
CONTINUOUS
 62
    7
 10
106.1244715
 20
118.75507149999999
 11
106.6509995
 21
118.45607549999998
  0
LINE
  8
_0-0_0
  6
CONTINUOUS
 62
    7
 10
106.6509995
 20
118.45607549999998
 11
107.24439849999999
 21
118.19592149999998
  0
LINE
  8
_0-0_0
  6
CONTINUOUS
 62
    7
 10
107.87864449999999
 20
117.96728349999999
 11
108.52770849999999
 21
117.7630145
  0
LINE
  8
_0-0_0
  6
CONTINUOUS
 62
    7
 10
109.1655945
 20
117.57572049999999
 11
109.76619549999999
 21
117.39818449999999
  0
LINE
  8
_0-0_0
  6
CONTINUOUS
 62
    7
 10
109.76619549999999
 20
117.39818449999999
 11
110.3035565
 21
117.2231585
  0
LINE
  8
_0-0_0
  6
CONTINUOUS
 62
    7
 10
110.75159249999999
 20
117.04337949999999
 11
111.08426449999999
 21
116.85154549999999
  0
LINE
  8
_0-0_0
  6
CONTINUOUS
 62
    7
 10
108.10313249999999
 20
116.84572449999999
 11
107.96938849999999
 21
116.68464449999999
  0
LINE
  8
_0-0_0
  6
CONTINUOUS
 62
    7
 10
107.77935549999999
 20
116.73074949999999
 11
107.78921349999999
 21
116.92635949999999
  0
LINE
  8
_0-0_0
  6
CONTINUOUS
 62
    7
 10
106.8326015
 20
117.44711149999999
 11
106.69405949999999
 21
117.6681505
  0
LINE
  8
_0-0_0
  6
CONTINUOUS
 62
    7
 10
136.0132955
 20
110.98666249999999
 11
136.07526949999999
 21
111.0800685
  0
LINE
  8
_0-0_0
  6
CONTINUOUS
 62
    7
 10
133.75716949999997
 20
110.38255949999999
 11
133.5788015
 21
110.69301449999999
  0
LINE
  8
_0-0_0
  6
CONTINUOUS
 62
    7
 10
132.71056849999999
 20
110.41882149999999
 11
132.57715350000001
 21
110.41816549999999
  0
LINE
  8
_0-0_0
  6
CONTINUOUS
 62
    7
 10
135.51222749999999
 20
110.19994949999999
 11
135.47369149999997
 21
110.2670115
  0
LINE
  8
_0-0_0
  6
CONTINUOUS
 62
    7
 10
136.4774525
 20
109.86253149999999
 11
136.28612249999998
 21
110.02020149999998
  0
LINE
  8
_0-0_0
  6
CONTINUOUS
 62
    7
 10
137.3715565
 20
112.37161049999999
 11
137.31921949999997
 21
112.72142649999999
  0
LINE
  8
_0-0_0
  6
CONTINUOUS
 62
    7
 10
137.31921949999997
 20
112.72142649999999
 11
137.2178935
 21
113.0530455
  0
LINE
  8
_0-0_0
  6
CONTINUOUS
 62
    7
 10
136.79955849999999
 20
114.4050355
 11
136.55717249999998
 21
114.59116949999999
  0
LINE
  8
_0-0_0
  6
CONTINUOUS
 62
    7
 10
137.17886149999998
 20
115.2340835
 11
137.18465149999997
 21
115.11191349999999
  0
LINE
  8
_0-0_0
  6
CONTINUOUS
 62
    7
 10
136.88087949999999
 20
116.71302649999998
 11
137.37824749999999
 21
116.26705749999999
  0
LINE
  8
_0-0_0
  6
CONTINUOUS
 62
    7
 10
139.80597449999999
 20
116.48911149999999
 11
139.89093550000001
 21
116.55113049999999
  0
LINE
  8
_0-0_0
  6
CONTINUOUS
 62
    7
 10
139.89093550000001
 20
116.55113049999999
 11
140.00722250000001
 21
116.42634449999998
  0
LINE
  8
_0-0_0
  6
CONTINUOUS
 62
    7
 10
142.55775949999997
 20
114.95978349999999
 11
142.84657049999998
 21
114.98036749999999
  0
LINE
  8
_0-0_0
  6
CONTINUOUS
 62
    7
 10
142.96655749999999
 20
116.08827049999999
 11
143.06858549999998
 21
115.91069649999999
  0
LINE
  8
_0-0_0
  6
CONTINUOUS
 62
    7
 10
143.94328849999999
 20
115.16448849999999
 11
143.8805055
 21
115.27376349999999
  0
LINE
  8
_0-0_0
  6
CONTINUOUS
 62
    7
 10
145.63638049999997
 20
112.76096949999999
 11
144.76478349999999
 21
113.55355649999998
  0
LINE
  8
_0-0_0
  6
CONTINUOUS
 62
    7
 10
145.77853149999999
 20
109.40856749999999
 11
146.1716285
 21
109.50062449999999
  0
LINE
  8
_0-0_0
  6
CONTINUOUS
 62
    7
 10
144.99233749999999
 20
109.22445549999999
 11
145.38543449999997
 21
109.31651149999999
  0
LINE
  8
_0-0_0
  6
CONTINUOUS
 62
    7
 10
145.06512950000001
 20
108.86489749999998
 11
145.04086050000001
 21
108.98475449999999
  0
LINE
  8
_0-0_0
  6
CONTINUOUS
 62
    7
 10
144.84528849999998
 20
107.30979049999999
 11
144.79553749999999
 21
107.23826449999999
  0
LINE
  8
_0-0_0
  6
CONTINUOUS
 62
    7
 10
147.6223115
 20
105.01203749999999
 11
147.54949649999998
 21
104.85126349999999
  0
LINE
  8
_0-0_0
  6
CONTINUOUS
 62
    7
 10
148.0161415
 20
107.98355749999999
 11
147.8576405
 21
106.78743549999999
  0
LINE
  8
_0-0_0
  6
CONTINUOUS
 62
    7
 10
148.05421150000001
 20
109.02128449999999
 11
147.95237449999999
 21
108.96278249999999
  0
LINE
  8
_0-0_0
  6
CONTINUOUS
 62
    7
 10
148.26765949999998
 20
109.88889949999999
 11
148.2876795
 21
109.1554245
  0
LINE
  8
_0-0_0
  6
CONTINUOUS
 62
    7
 10
148.44502749999998
 20
110.5375275
 11
148.26765949999998
 21
109.88889949999999
  0
LINE
  8
_0-0_0
  6
CONTINUOUS
 62
    7
 10
148.5658085
 20
111.23295449999999
 11
148.44502749999998
 21
110.5375275
  0
LINE
  8
_0-0_0
  6
CONTINUOUS
 62
    7
 10
146.83392049999998
 20
111.23722649999999
 11
146.8971075
 21
111.03239249999999
  0
LINE
  8
_0-0_0
  6
CONTINUOUS
 62
    7
 10
137.77121449999999
 20
118.84333649999999
 11
137.75623849999999
 21
118.71414049999998
  0
LINE
  8
_0-0_0
  6
CONTINUOUS
 62
    7
 10
136.84870649999999
 20
119.51748449999999
 11
137.14050049999997
 21
119.78586449999999
  0
LINE
  8
_0-0_0
  6
CONTINUOUS
 62
    7
 10
136.14068349999999
 20
121.4323105
 11
135.41942349999999
 21
121.7207775
  0
LINE
  8
_0-0_0
  6
CONTINUOUS
 62
    7
 10
137.7616855
 20
122.6865215
 11
137.95793649999999
 21
122.7100815
  0
LINE
  8
_0-0_0
  6
CONTINUOUS
 62
    7
 10
139.48648549999999
 20
121.3088205
 11
139.72746050000001
 21
121.5017685
  0
LINE
  8
_0-0_0
  6
CONTINUOUS
 62
    7
 10
137.63998950000001
 20
119.65826249999999
 11
137.74875449999999
 21
119.4085595
  0
LINE
  8
_0-0_0
  6
CONTINUOUS
 62
    7
 10
136.31506150000001
 20
119.67006549999999
 11
136.52319849999998
 21
119.69879749999998
  0
LINE
  8
_0-0_0
  6
CONTINUOUS
 62
    7
 10
136.77689149999998
 20
114.98499149999999
 11
136.87812550000001
 21
115.21989249999999
  0
LINE
  8
_0-0_0
  6
CONTINUOUS
 62
    7
 10
134.5304165
 20
112.3124675
 11
134.89014950000001
 21
111.6739255
  0
LINE
  8
_0-0_0
  6
CONTINUOUS
 62
    7
 10
133.87413549999999
 20
111.26573049999999
 11
133.54765049999997
 21
112.0064685
  0
LINE
  8
_0-0_0
  6
CONTINUOUS
 62
    7
 10
135.23587549999999
 20
101.21070749999998
 11
135.4201175
 21
100.82102849999998
  0
LINE
  8
_0-0_0
  6
CONTINUOUS
 62
    7
 10
131.2270255
 20
102.83213649999999
 11
131.2320225
 21
102.7458025
  0
LINE
  8
_0-0_0
  6
CONTINUOUS
 62
    7
 10
130.31235249999997
 20
102.6617565
 11
130.25819150000001
 21
102.81067549999999
  0
LINE
  8
_0-0_0
  6
CONTINUOUS
 62
    7
 10
126.2856805
 20
105.30035249999999
 11
126.70404549999999
 21
105.15582849999998
  0
LINE
  8
_0-0_0
  6
CONTINUOUS
 62
    7
 10
123.89345349999999
 20
107.13535949999999
 11
123.90773549999999
 21
106.87762249999999
  0
LINE
  8
_0-0_0
  6
CONTINUOUS
 62
    7
 10
123.60127849999999
 20
107.41676949999999
 11
123.3377895
 21
107.81211649999999
  0
LINE
  8
_0-0_0
  6
CONTINUOUS
 62
    7
 10
122.77367149999999
 20
108.45762449999999
 11
123.27689149999999
 21
107.95551949999999
  0
LINE
  8
_0-0_0
  6
CONTINUOUS
 62
    7
 10
123.37654649999999
 20
110.9876695
 11
123.2889845
 21
110.98195449999999
  0
LINE
  8
_0-0_0
  6
CONTINUOUS
 62
    7
 10
123.86607149999999
 20
112.38387149999998
 11
123.43115049999999
 21
111.95065149999999
  0
LINE
  8
_0-0_0
  6
CONTINUOUS
 62
    7
 10
121.4695945
 20
113.68290549999999
 11
121.33112849999999
 21
113.55875949999999
  0
LINE
  8
_0-0_0
  6
CONTINUOUS
 62
    7
 10
121.20822649999999
 20
114.91042949999999
 11
121.52165749999999
 21
113.98041349999998
  0
LINE
  8
_0-0_0
  6
CONTINUOUS
 62
    7
 10
120.87663049999999
 20
115.73380849999999
 11
121.20822649999999
 21
114.91042949999999
  0
LINE
  8
_0-0_0
  6
CONTINUOUS
 62
    7
 10
120.5262815
 20
116.4879055
 11
120.87663049999999
 21
115.73380849999999
  0
LINE
  8
_0-0_0
  6
CONTINUOUS
 62
    7
 10
120.15669849999999
 20
117.21004349999998
 11
120.5262815
 21
116.4879055
  0
LINE
  8
_0-0_0
  6
CONTINUOUS
 62
    7
 10
120.1111045
 20
117.79831549999999
 11
120.38214649999999
 21
117.20577049999999
  0
LINE
  8
_0-0_0
  6
CONTINUOUS
 62
    7
 10
119.52718949999999
 20
118.61910049999999
 11
119.67000349999999
 21
118.62350249999999
  0
LINE
  8
_0-0_0
  6
CONTINUOUS
 62
    7
 10
131.2446645
 20
132.2011545
 11
131.02254249999999
 21
132.8350045
  0
LINE
  8
_0-0_0
  6
CONTINUOUS
 62
    7
 10
131.84728050000001
 20
131.90516449999998
 11
132.2634405
 21
130.94795049999999
  0
LINE
  8
_0-0_0
  6
CONTINUOUS
 62
    7
 10
132.96856450000001
 20
129.60888449999999
 11
132.8579685
 21
129.80137449999998
  0
LINE
  8
_0-0_0
  6
CONTINUOUS
 62
    7
 10
133.72366849999997
 20
128.12498249999999
 11
133.19882749999999
 21
128.91195449999998
  0
LINE
  8
_0-0_0
  6
CONTINUOUS
 62
    7
 10
135.28664950000001
 20
126.66091749999998
 11
134.87666050000001
 21
127.4808635
  0
LINE
  8
_0-0_0
  6
CONTINUOUS
 62
    7
 10
135.54902449999997
 20
126.12948449999999
 11
135.44576050000001
 21
126.30634849999998
  0
LINE
  8
_0-0_0
  6
CONTINUOUS
 62
    7
 10
135.15884949999997
 20
124.7903575
 11
135.35945649999999
 21
124.69416649999999
  0
LINE
  8
_0-0_0
  6
CONTINUOUS
 62
    7
 10
135.35945649999999
 20
124.69416649999999
 11
135.57925949999998
 21
124.5991195
  0
LINE
  8
_0-0_0
  6
CONTINUOUS
 62
    7
 10
136.1520975
 20
124.2460615
 11
136.2998485
 21
124.12115249999999
  0
LINE
  8
_0-0_0
  6
CONTINUOUS
 62
    7
 10
136.9115425
 20
123.7292765
 11
137.25587949999999
 21
123.46627649999999
  0
LINE
  8
_0-0_0
  6
CONTINUOUS
 62
    7
 10
138.00000549999999
 20
123.18021949999999
 11
138.26824749999997
 21
123.33434849999998
  0
LINE
  8
_0-0_0
  6
CONTINUOUS
 62
    7
 10
137.85210949999998
 20
123.6733835
 11
137.6917775
 21
123.71671849999998
  0
LINE
  8
_0-0_0
  6
CONTINUOUS
 62
    7
 10
137.74862450000001
 20
124.55213749999999
 11
137.64178949999999
 21
124.57995449999999
  0
LINE
  8
_0-0_0
  6
CONTINUOUS
 62
    7
 10
131.49392449999999
 20
132.8834665
 11
131.84728050000001
 21
131.90516449999998
  0
LINE
  8
_0-0_0
  6
CONTINUOUS
 62
    7
 10
133.4815045
 20
129.80283949999998
 11
133.55286150000001
 21
129.67863249999999
  0
LINE
  8
_0-0_0
  6
CONTINUOUS
 62
    7
 10
135.52712750000001
 20
124.4799635
 11
135.48991150000001
 21
124.36939849999999
  0
LINE
  8
_0-0_0
  6
CONTINUOUS
 62
    7
 10
132.1285915
 20
124.39227149999999
 11
132.48729449999999
 21
123.8484325
  0
LINE
  8
_0-0_0
  6
CONTINUOUS
 62
    7
 10
134.37787349999999
 20
123.89567349999999
 11
134.28085049999999
 21
123.98692149999999
  0
LINE
  8
_0-0_0
  6
CONTINUOUS
 62
    7
 10
135.69557750000001
 20
124.0861645
 11
135.5521215
 21
124.0483385
  0
LINE
  8
_0-0_0
  6
CONTINUOUS
 62
    7
 10
137.7417805
 20
121.24628249999999
 11
137.80014549999999
 21
121.35746549999999
  0
LINE
  8
_0-0_0
  6
CONTINUOUS
 62
    7
 10
141.06657150000001
 20
118.38613749999999
 11
140.60014150000001
 21
118.50797849999999
  0
LINE
  8
_0-0_0
  6
CONTINUOUS
 62
    7
 10
142.8940025
 20
116.65446349999999
 11
142.75819150000001
 21
116.99431449999999
  0
LINE
  8
_0-0_0
  6
CONTINUOUS
 62
    7
 10
143.82199650000001
 20
115.37559349999999
 11
144.09265649999998
 21
115.18916149999998
  0
LINE
  8
_0-0_0
  6
CONTINUOUS
 62
    7
 10
136.08392850000001
 20
133.80047449999998
 11
136.2109045
 21
133.4356975
  0
LINE
  8
_0-0_0
  6
CONTINUOUS
 62
    7
 10
143.12469249999998
 20
126.14684849999998
 11
142.59759249999999
 21
127.11643749999999
  0
LINE
  8
_0-0_0
  6
CONTINUOUS
 62
    7
 10
143.53674050000001
 20
124.6235945
 11
143.4833505
 21
124.8142685
  0
LINE
  8
_0-0_0
  6
CONTINUOUS
 62
    7
 10
143.33999349999999
 20
122.68038749999999
 11
143.42763249999999
 21
122.5077345
  0
LINE
  8
_0-0_0
  6
CONTINUOUS
 62
    7
 10
143.5579965
 20
122.51658449999999
 11
143.6286595
 21
122.61498849999998
  0
LINE
  8
_0-0_0
  6
CONTINUOUS
 62
    7
 10
143.86794049999997
 20
122.53771749999999
 11
143.9555795
 21
122.36508049999998
  0
LINE
  8
_0-0_0
  6
CONTINUOUS
 62
    7
 10
144.18121049999999
 20
122.12473849999998
 11
144.21903750000001
 21
121.98127549999998
  0
LINE
  8
_0-0_0
  6
CONTINUOUS
 62
    7
 10
145.20998850000001
 20
120.90047249999999
 11
145.17704549999999
 21
121.0153335
  0
LINE
  8
_0-0_0
  6
CONTINUOUS
 62
    7
 10
145.98531850000001
 20
119.9650255
 11
145.96917450000001
 21
120.17709149999999
  0
LINE
  8
_0-0_0
  6
CONTINUOUS
 62
    7
 10
146.04915349999999
 20
118.79589649999998
 11
146.3195695
 21
118.32523149999999
  0
LINE
  8
_0-0_0
  6
CONTINUOUS
 62
    7
 10
144.52923349999998
 20
119.62727949999999
 11
144.74860849999999
 21
119.40643949999999
  0
LINE
  8
_0-0_0
  6
CONTINUOUS
 62
    7
 10
146.9182405
 20
117.94737049999999
 11
146.3423895
 21
118.51838549999999
  0
LINE
  8
_0-0_0
  6
CONTINUOUS
 62
    7
 10
147.3952305
 20
118.3188615
 11
147.07287350000001
 21
118.4342935
  0
LINE
  8
_0-0_0
  6
CONTINUOUS
 62
    7
 10
149.54481249999998
 20
117.99294149999999
 11
149.4372765
 21
118.02200149999999
  0
LINE
  8
_0-0_0
  6
CONTINUOUS
 62
    7
 10
149.7339375
 20
120.37776049999999
 11
149.67170449999998
 21
120.02321449999999
  0
LINE
  8
_0-0_0
  6
CONTINUOUS
 62
    7
 10
149.51268549999998
 20
123.37913349999999
 11
149.7910895
 21
122.60416949999998
  0
LINE
  8
_0-0_0
  6
CONTINUOUS
 62
    7
 10
149.25649749999999
 20
123.5375195
 11
149.20992050000001
 21
123.7767015
  0
LINE
  8
_0-0_0
  6
CONTINUOUS
 62
    7
 10
149.17506950000001
 20
124.01272449999999
 11
149.16370849999998
 21
124.24238449999999
  0
LINE
  8
_0-0_0
  6
CONTINUOUS
 62
    7
 10
149.12226649999999
 20
125.5565325
 11
149.21858750000001
 21
125.3888685
  0
LINE
  8
_0-0_0
  6
CONTINUOUS
 62
    7
 10
148.97661349999998
 20
126.45400849999999
 11
148.91389249999997
 21
126.4625685
  0
LINE
  8
_0-0_0
  6
CONTINUOUS
 62
    7
 10
148.39517749999999
 20
128.13017049999999
 11
148.6201145
 21
127.65817049999998
  0
LINE
  8
_0-0_0
  6
CONTINUOUS
 62
    7
 10
147.86216450000001
 20
129.06939549999998
 11
148.39517749999999
 21
128.13017049999999
  0
LINE
  8
_0-0_0
  6
CONTINUOUS
 62
    7
 10
147.43979350000001
 20
129.49404749999999
 11
147.76656850000001
 21
128.9252755
  0
LINE
  8
_0-0_0
  6
CONTINUOUS
 62
    7
 10
146.29362950000001
 20
131.1612375
 11
147.02879849999999
 21
130.59751749999998
  0
LINE
  8
_0-0_0
  6
CONTINUOUS
 62
    7
 10
145.5075655
 20
131.60653449999998
 11
146.29362950000001
 21
131.1612375
  0
LINE
  8
_0-0_0
  6
CONTINUOUS
 62
    7
 10
142.54375949999999
 20
133.08511149999998
 11
143.0570195
 21
132.7754195
  0
LINE
  8
_0-0_0
  6
CONTINUOUS
 62
    7
 10
140.59716549999999
 20
134.65911649999998
 11
140.9731195
 21
134.27218449999998
  0
LINE
  8
_0-0_0
  6
CONTINUOUS
 62
    7
 10
188.14888450000001
 20
112.27278749999999
 11
187.57490250000001
 21
111.8979325
  0
LINE
  8
_0-0_0
  6
CONTINUOUS
 62
    7
 10
188.78332949999998
 20
112.61340149999999
 11
188.14888450000001
 21
112.27278749999999
  0
LINE
  8
_0-0_0
  6
CONTINUOUS
 62
    7
 10
189.46347449999999
 20
112.9031505
 11
188.78332949999998
 21
112.61340149999999
  0
LINE
  8
_0-0_0
  6
CONTINUOUS
 62
    7
 10
190.17461850000001
 20
113.12557849999999
 11
189.46347449999999
 21
112.9031505
  0
LINE
  8
_0-0_0
  6
CONTINUOUS
 62
    7
 10
191.6309555
 20
113.30219849999999
 11
190.90200449999998
 21
113.26408249999999
  0
LINE
  8
_0-0_0
  6
CONTINUOUS
 62
    7
 10
192.10845649999999
 20
113.78048549999998
 11
191.93940449999999
 21
113.67510849999999
  0
LINE
  8
_0-0_0
  6
CONTINUOUS
 62
    7
 10
192.27897350000001
 20
114.09319949999998
 11
192.19651449999998
 21
113.88887649999999
  0
LINE
  8
_0-0_0
  6
CONTINUOUS
 62
    7
 10
190.00419349999999
 20
108.02743349999999
 11
189.6260345
 21
108.1537465
  0
LINE
  8
_0-0_0
  6
CONTINUOUS
 62
    7
 10
186.52929349999999
 20
106.59630449999999
 11
187.07983849999999
 21
106.30758549999999
  0
LINE
  8
_0-0_0
  6
CONTINUOUS
 62
    7
 10
187.07983849999999
 20
106.30758549999999
 11
187.68608549999999
 21
106.12241949999999
  0
LINE
  8
_0-0_0
  6
CONTINUOUS
 62
    7
 10
189.72365249999999
 20
106.00115049999999
 11
190.4373215
 21
106.04305849999999
  0
LINE
  8
_0-0_0
  6
CONTINUOUS
 62
    7
 10
179.43676449999998
 20
109.1215345
 11
179.30620249999998
 21
109.27116249999999
  0
LINE
  8
_0-0_0
  6
CONTINUOUS
 62
    7
 10
179.7150235
 20
108.79247849999999
 11
179.5716065
 21
108.9644685
  0
LINE
  8
_0-0_0
  6
CONTINUOUS
 62
    7
 10
178.90652549999999
 20
108.72769749999999
 11
178.7511835
 21
108.6846985
  0
LINE
  8
_0-0_0
  6
CONTINUOUS
 62
    7
 10
177.88012749999999
 20
107.87205349999999
 11
177.29868049999999
 21
107.26545549999999
  0
LINE
  8
_0-0_0
  6
CONTINUOUS
 62
    7
 10
177.0638055
 20
106.59037649999999
 11
176.62316249999998
 21
105.9457305
  0
LINE
  8
_0-0_0
  6
CONTINUOUS
 62
    7
 10
176.62316249999998
 20
105.9457305
 11
176.5881205
 21
105.36562149999999
  0
LINE
  8
_0-0_0
  6
CONTINUOUS
 62
    7
 10
176.5881205
 20
105.36562149999999
 11
176.3282365
 21
104.74557349999999
  0
LINE
  8
_0-0_0
  6
CONTINUOUS
 62
    7
 10
178.06090649999999
 20
102.35653549999999
 11
178.5063825
 21
102.76277049999999
  0
LINE
  8
_0-0_0
  6
CONTINUOUS
 62
    7
 10
178.62463449999998
 20
103.16934049999999
 11
178.80138449999998
 21
103.62933249999999
  0
LINE
  8
_0-0_0
  6
CONTINUOUS
 62
    7
 10
178.80138449999998
 20
103.62933249999999
 11
179.17707150000001
 21
103.64533049999999
  0
LINE
  8
_0-0_0
  6
CONTINUOUS
 62
    7
 10
182.38901249999998
 20
107.78668049999999
 11
181.64068649999999
 21
107.90181549999998
  0
LINE
  8
_0-0_0
  6
CONTINUOUS
 62
    7
 10
181.7600755
 20
110.32751349999999
 11
181.61818749999998
 21
110.37319749999999
  0
LINE
  8
_0-0_0
  6
CONTINUOUS
 62
    7
 10
167.20030650000001
 20
99.682936499999997
 11
167.0734985
 21
99.745527499999994
  0
LINE
  8
_0-0_0
  6
CONTINUOUS
 62
    7
 10
154.0029275
 20
110.07533149999999
 11
154.05215149999998
 21
109.91201649999999
  0
LINE
  8
_0-0_0
  6
CONTINUOUS
 62
    7
 10
154.42166649999999
 20
109.60233949999999
 11
154.56512950000001
 21
109.64016549999999
  0
LINE
  8
_0-0_0
  6
CONTINUOUS
 62
    7
 10
154.95177949999999
 20
108.91254249999999
 11
155.19207449999999
 21
109.01756149999999
  0
LINE
  8
_0-0_0
  6
CONTINUOUS
 62
    7
 10
154.2840855
 20
108.80972149999999
 11
155.04860450000001
 21
108.23805849999999
  0
LINE
  8
_0-0_0
  6
CONTINUOUS
 62
    7
 10
154.3788275
 20
107.79379849999999
 11
154.47318749999999
 21
107.9372085
  0
LINE
  8
_0-0_0
  6
CONTINUOUS
 62
    7
 10
154.52244350000001
 20
107.38572549999999
 11
154.5914435
 21
107.50137149999999
  0
LINE
  8
_0-0_0
  6
CONTINUOUS
 62
    7
 10
152.34545650000001
 20
109.7028335
 11
152.54539249999999
 21
109.81770949999999
  0
LINE
  8
_0-0_0
  6
CONTINUOUS
 62
    7
 10
152.51505750000001
 20
110.03151549999998
 11
152.7761965
 21
110.03125649999998
  0
LINE
  8
_0-0_0
  6
CONTINUOUS
 62
    7
 10
153.77673049999999
 20
124.75201249999998
 11
153.87875149999999
 21
124.57443049999998
  0
LINE
  8
_0-0_0
  6
CONTINUOUS
 62
    7
 10
154.3011295
 20
124.07214149999999
 11
154.10119349999999
 21
123.95727349999999
  0
LINE
  8
_0-0_0
  6
CONTINUOUS
 62
    7
 10
153.90869649999999
 20
123.84666249999998
 11
153.73111449999999
 21
123.7446425
  0
LINE
  8
_0-0_0
  6
CONTINUOUS
 62
    7
 10
152.52446449999999
 20
122.4802995
 11
152.53518450000001
 21
121.65308949999999
  0
LINE
  8
_0-0_0
  6
CONTINUOUS
 62
    7
 10
152.60844950000001
 20
120.17630549999998
 11
152.69043449999998
 21
119.57887049999999
  0
LINE
  8
_0-0_0
  6
CONTINUOUS
 62
    7
 10
152.69043449999998
 20
119.57887049999999
 11
152.32138549999999
 21
119.45933349999999
  0
LINE
  8
_0-0_0
  6
CONTINUOUS
 62
    7
 10
152.19959749999998
 20
118.36030449999998
 11
152.36231749999999
 21
118.36459949999998
  0
LINE
  8
_0-0_0
  6
CONTINUOUS
 62
    7
 10
152.36231749999999
 20
118.36459949999998
 11
151.77929449999999
 21
117.67449049999999
  0
LINE
  8
_0-0_0
  6
CONTINUOUS
 62
    7
 10
153.07352950000001
 20
116.27570949999999
 11
153.35979950000001
 21
116.39558249999999
  0
LINE
  8
_0-0_0
  6
CONTINUOUS
 62
    7
 10
153.5295385
 20
116.12311349999999
 11
153.6958285
 21
116.27645749999999
  0
LINE
  8
_0-0_0
  6
CONTINUOUS
 62
    7
 10
154.79949649999998
 20
116.37372449999999
 11
155.12909450000001
 21
116.65392849999999
  0
LINE
  8
_0-0_0
  6
CONTINUOUS
 62
    7
 10
156.03513849999999
 20
116.8623035
 11
156.16693649999999
 21
116.79102949999999
  0
LINE
  8
_0-0_0
  6
CONTINUOUS
 62
    7
 10
157.81868449999999
 20
117.48397649999998
 11
157.8272375
 21
117.62433449999999
  0
LINE
  8
_0-0_0
  6
CONTINUOUS
 62
    7
 10
158.4017915
 20
117.68519449999999
 11
159.11425549999998
 21
118.0234895
  0
LINE
  8
_0-0_0
  6
CONTINUOUS
 62
    7
 10
159.6806685
 20
118.82299649999999
 11
160.15572449999999
 21
119.26112149999999
  0
LINE
  8
_0-0_0
  6
CONTINUOUS
 62
    7
 10
160.6542675
 20
119.6928995
 11
161.1645365
 21
120.1215115
  0
LINE
  8
_0-0_0
  6
CONTINUOUS
 62
    7
 10
162.27716949999999
 20
121.47103749999999
 11
162.54851249999999
 21
121.82678049999998
  0
LINE
  8
_0-0_0
  6
CONTINUOUS
 62
    7
 10
163.2565855
 20
122.9058665
 11
163.3538945
 21
123.29710249999999
  0
LINE
  8
_0-0_0
  6
CONTINUOUS
 62
    7
 10
164.39260250000001
 20
124.20606849999999
 11
164.79066549999999
 21
124.59995849999999
  0
LINE
  8
_0-0_0
  6
CONTINUOUS
 62
    7
 10
165.77797849999999
 20
125.00036449999999
 11
165.66674949999998
 21
124.9381085
  0
LINE
  8
_0-0_0
  6
CONTINUOUS
 62
    7
 10
166.57987649999998
 20
126.22091449999999
 11
166.54205049999999
 21
126.3643625
  0
LINE
  8
_0-0_0
  6
CONTINUOUS
 62
    7
 10
166.80469249999999
 20
126.78120249999998
 11
167.29171449999998
 21
127.1353135
  0
LINE
  8
_0-0_0
  6
CONTINUOUS
 62
    7
 10
167.73465449999998
 20
127.6293465
 11
167.71408550000001
 21
127.76287649999998
  0
LINE
  8
_0-0_0
  6
CONTINUOUS
 62
    7
 10
167.7127165
 20
127.8975355
 11
168.09147350000001
 21
128.1151405
  0
LINE
  8
_0-0_0
  6
CONTINUOUS
 62
    7
 10
168.09147350000001
 20
128.1151405
 11
168.4851505
 21
128.34132249999999
  0
LINE
  8
_0-0_0
  6
CONTINUOUS
 62
    7
 10
168.8583725
 20
128.7209455
 11
168.85396649999998
 21
128.8637525
  0
LINE
  8
_0-0_0
  6
CONTINUOUS
 62
    7
 10
168.86128349999998
 20
129.0034005
 11
169.2057355
 21
128.47288349999999
  0
LINE
  8
_0-0_0
  6
CONTINUOUS
 62
    7
 10
170.21651549999999
 20
129.16590649999998
 11
170.5787555
 21
129.62512049999998
  0
LINE
  8
_0-0_0
  6
CONTINUOUS
 62
    7
 10
170.64070649999999
 20
129.1089915
 11
171.16143549999998
 21
129.84425149999998
  0
LINE
  8
_0-0_0
  6
CONTINUOUS
 62
    7
 10
171.8040135
 20
129.30660849999998
 11
171.05122449999999
 21
128.5123735
  0
LINE
  8
_0-0_0
  6
CONTINUOUS
 62
    7
 10
172.46120149999999
 20
129.9567395
 11
171.8040135
 21
129.30660849999998
  0
LINE
  8
_0-0_0
  6
CONTINUOUS
 62
    7
 10
173.31591549999999
 20
129.55583049999998
 11
172.6789785
 21
129.0668465
  0
LINE
  8
_0-0_0
  6
CONTINUOUS
 62
    7
 10
171.72791749999999
 20
127.6623055
 11
172.5061465
 21
128.29441649999998
  0
LINE
  8
_0-0_0
  6
CONTINUOUS
 62
    7
 10
171.43491849999998
 20
128.09100149999998
 11
170.82716049999999
 21
127.60432249999999
  0
LINE
  8
_0-0_0
  6
CONTINUOUS
 62
    7
 10
171.2561925
 20
126.85609249999999
 11
171.78643549999998
 21
127.24993749999999
  0
LINE
  8
_0-0_0
  6
CONTINUOUS
 62
    7
 10
169.63859650000001
 20
126.63387849999998
 11
169.05716849999999
 21
126.15029749999999
  0
LINE
  8
_0-0_0
  6
CONTINUOUS
 62
    7
 10
167.35753749999998
 20
124.4245895
 11
167.38543749999999
 21
124.27543449999999
  0
LINE
  8
_0-0_0
  6
CONTINUOUS
 62
    7
 10
168.99200149999999
 20
122.96581849999998
 11
169.1194505
 21
123.25111249999998
  0
LINE
  8
_0-0_0
  6
CONTINUOUS
 62
    7
 10
168.79350349999999
 20
122.1217935
 11
168.9052245
 21
122.61648349999999
  0
LINE
  8
_0-0_0
  6
CONTINUOUS
 62
    7
 10
168.59128249999998
 20
121.4003585
 11
168.79350349999999
 21
122.1217935
  0
LINE
  8
_0-0_0
  6
CONTINUOUS
 62
    7
 10
167.94711050000001
 20
119.73856149999999
 11
167.83039149999999
 21
120.20338249999999
  0
LINE
  8
_0-0_0
  6
CONTINUOUS
 62
    7
 10
167.7864735
 20
117.62614249999999
 11
168.4551975
 21
117.9888515
  0
LINE
  8
_0-0_0
  6
CONTINUOUS
 62
    7
 10
169.01799849999998
 20
119.72614849999999
 11
169.68432749999999
 21
119.96363649999999
  0
LINE
  8
_0-0_0
  6
CONTINUOUS
 62
    7
 10
169.52643649999999
 20
120.95648049999998
 11
168.7118045
 21
120.49678649999998
  0
LINE
  8
_0-0_0
  6
CONTINUOUS
 62
    7
 10
170.4617475
 20
121.35166749999999
 11
169.52643649999999
 21
120.95648049999998
  0
LINE
  8
_0-0_0
  6
CONTINUOUS
 62
    7
 10
165.67223849999999
 20
143.09278649999999
 11
165.81852049999998
 21
142.6052985
  0
LINE
  8
_0-0_0
  6
CONTINUOUS
 62
    7
 10
164.84605549999998
 20
140.03141549999998
 11
164.65789849999999
 21
139.96790849999999
  0
LINE
  8
_0-0_0
  6
CONTINUOUS
 62
    7
 10
164.03226549999999
 20
139.11622449999999
 11
164.0807815
 21
138.9541605
  0
LINE
  8
_0-0_0
  6
CONTINUOUS
 62
    7
 10
163.76830749999999
 20
138.8770275
 11
163.4669045
 21
138.16537249999999
  0
LINE
  8
_0-0_0
  6
CONTINUOUS
 62
    7
 10
162.68826350000001
 20
137.1861395
 11
162.49332149999998
 21
136.9849375
  0
LINE
  8
_0-0_0
  6
CONTINUOUS
 62
    7
 10
162.30655049999999
 20
136.47624049999999
 11
162.1767705
 21
136.44628749999998
  0
LINE
  8
_0-0_0
  6
CONTINUOUS
 62
    7
 10
162.2309545
 20
135.9868295
 11
162.30005349999999
 21
135.53594749999999
  0
LINE
  8
_0-0_0
  6
CONTINUOUS
 62
    7
 10
162.0840925
 20
135.0550825
 11
161.7257515
 21
134.2297805
  0
LINE
  8
_0-0_0
  6
CONTINUOUS
 62
    7
 10
161.50846250000001
 20
133.0296305
 11
161.33817049999999
 21
132.92353649999998
  0
LINE
  8
_0-0_0
  6
CONTINUOUS
 62
    7
 10
161.76316549999999
 20
132.81918149999998
 11
162.0984665
 21
133.01182349999999
  0
LINE
  8
_0-0_0
  6
CONTINUOUS
 62
    7
 10
163.7040495
 20
134.07784849999999
 11
164.58460349999999
 21
134.65203649999998
  0
LINE
  8
_0-0_0
  6
CONTINUOUS
 62
    7
 10
164.58460349999999
 20
134.65203649999998
 11
165.4334265
 21
135.32507149999998
  0
LINE
  8
_0-0_0
  6
CONTINUOUS
 62
    7
 10
165.58466849999999
 20
135.95133749999999
 11
165.4443105
 21
135.95988249999999
  0
LINE
  8
_0-0_0
  6
CONTINUOUS
 62
    7
 10
165.5556345
 20
137.0397165
 11
165.21667550000001
 21
136.8994735
  0
LINE
  8
_0-0_0
  6
CONTINUOUS
 62
    7
 10
165.97932950000001
 20
136.8916605
 11
166.3037995
 21
137.68099749999999
  0
LINE
  8
_0-0_0
  6
CONTINUOUS
 62
    7
 10
166.34900349999998
 20
134.69573749999998
 11
165.65683849999999
 21
134.33936849999998
  0
LINE
  8
_0-0_0
  6
CONTINUOUS
 62
    7
 10
166.6450815
 20
133.34950049999998
 11
166.41471250000001
 21
133.26174749999998
  0
LINE
  8
_0-0_0
  6
CONTINUOUS
 62
    7
 10
167.12174349999998
 20
132.7297495
 11
166.80000050000001
 21
132.5911385
  0
LINE
  8
_0-0_0
  6
CONTINUOUS
 62
    7
 10
167.78237250000001
 20
132.97715549999998
 11
167.44777349999998
 21
132.86091449999998
  0
LINE
  8
_0-0_0
  6
CONTINUOUS
 62
    7
 10
167.0908025
 20
134.26136549999998
 11
167.10376049999999
 21
134.4141525
  0
LINE
  8
_0-0_0
  6
CONTINUOUS
 62
    7
 10
167.10376049999999
 20
134.4141525
 11
167.13592249999999
 21
134.56806749999998
  0
LINE
  8
_0-0_0
  6
CONTINUOUS
 62
    7
 10
169.6015405
 20
134.46832049999998
 11
169.34624550000001
 21
134.7775245
  0
LINE
  8
_0-0_0
  6
CONTINUOUS
 62
    7
 10
168.37104149999999
 20
135.88557249999999
 11
168.73891549999999
 21
136.2026195
  0
LINE
  8
_0-0_0
  6
CONTINUOUS
 62
    7
 10
168.6718415
 20
136.47462249999998
 11
168.6468625
 21
136.59571649999998
  0
LINE
  8
_0-0_0
  6
CONTINUOUS
 62
    7
 10
168.9757055
 20
136.8110945
 11
169.30725150000001
 21
137.24603049999999
  0
LINE
  8
_0-0_0
  6
CONTINUOUS
 62
    7
 10
171.44434050000001
 20
136.3496375
 11
171.2663355
 21
135.43470549999998
  0
LINE
  8
_0-0_0
  6
CONTINUOUS
 62
    7
 10
170.00501349999999
 20
137.18443149999999
 11
169.86395349999998
 21
137.1165905
  0
LINE
  8
_0-0_0
  6
CONTINUOUS
 62
    7
 10
164.43644849999998
 20
126.18533149999999
 11
164.1107495
 21
125.5390305
  0
LINE
  8
_0-0_0
  6
CONTINUOUS
 62
    7
 10
162.57038649999998
 20
124.62924049999998
 11
162.1667755
 21
124.38580149999999
  0
LINE
  8
_0-0_0
  6
CONTINUOUS
 62
    7
 10
159.4131745
 20
123.9633005
 11
158.47556750000001
 21
123.95649549999999
  0
LINE
  8
_0-0_0
  6
CONTINUOUS
 62
    7
 10
157.49088449999999
 20
124.0316445
 11
157.38029549999999
 21
124.14649749999998
  0
LINE
  8
_0-0_0
  6
CONTINUOUS
 62
    7
 10
157.38029549999999
 20
124.14649749999998
 11
157.11775749999998
 21
123.9824505
  0
LINE
  8
_0-0_0
  6
CONTINUOUS
 62
    7
 10
133.34683749999999
 20
132.25102049999998
 11
133.80745450000001
 21
131.56425249999998
  0
LINE
  8
_0-0_0
  6
CONTINUOUS
 62
    7
 10
134.05370049999999
 20
131.32249249999998
 11
134.21759549999999
 21
131.43980249999998
  0
LINE
  8
_0-0_0
  6
CONTINUOUS
 62
    7
 10
134.58591949999999
 20
128.3692915
 11
134.71007349999999
 21
129.1393415
  0
LINE
  8
_0-0_0
  6
CONTINUOUS
 62
    7
 10
135.08897949999999
 20
129.44293049999999
 11
134.90979549999997
 21
129.87846149999999
  0
LINE
  8
_0-0_0
  6
CONTINUOUS
 62
    7
 10
136.18720049999999
 20
128.6814555
 11
136.7519815
 21
127.6811965
  0
LINE
  8
_0-0_0
  6
CONTINUOUS
 62
    7
 10
136.5515345
 20
127.25384349999999
 11
136.94027449999999
 21
126.93375949999998
  0
LINE
  8
_0-0_0
  6
CONTINUOUS
 62
    7
 10
138.02886749999999
 20
136.12206849999998
 11
138.41047449999999
 21
135.65914749999999
  0
LINE
  8
_0-0_0
  6
CONTINUOUS
 62
    7
 10
138.09081750000001
 20
134.3324265
 11
137.6012475
 21
134.99761749999999
  0
LINE
  8
_0-0_0
  6
CONTINUOUS
 62
    7
 10
139.34432749999999
 20
132.87225149999998
 11
139.25364450000001
 21
133.13068949999999
  0
LINE
  8
_0-0_0
  6
CONTINUOUS
 62
    7
 10
140.34859949999998
 20
131.63783049999998
 11
139.8963215
 21
132.3548715
  0
LINE
  8
_0-0_0
  6
CONTINUOUS
 62
    7
 10
140.80848449999999
 20
130.9187455
 11
140.34859949999998
 21
131.63783049999998
  0
LINE
  8
_0-0_0
  6
CONTINUOUS
 62
    7
 10
137.06098750000001
 20
136.76023649999999
 11
136.83996350000001
 21
137.23118349999999
  0
LINE
  8
_0-0_0
  6
CONTINUOUS
 62
    7
 10
137.70467149999999
 20
136.6576365
 11
138.02886749999999
 21
136.12206849999998
  0
LINE
  8
_0-0_0
  6
CONTINUOUS
 62
    7
 10
139.07869449999998
 20
136.1520515
 11
139.00721549999997
 21
136.41163449999999
  0
LINE
  8
_0-0_0
  6
CONTINUOUS
 62
    7
 10
154.0037355
 20
140.4299905
 11
153.86701749999997
 21
139.7220135
  0
LINE
  8
_0-0_0
  6
CONTINUOUS
 62
    7
 10
153.86701749999997
 20
139.7220135
 11
153.79093649999999
 21
138.94854549999999
  0
LINE
  8
_0-0_0
  6
CONTINUOUS
 62
    7
 10
153.65350849999999
 20
137.4560065
 11
153.50857250000001
 21
136.86248549999999
  0
LINE
  8
_0-0_0
  6
CONTINUOUS
 62
    7
 10
153.50857250000001
 20
136.86248549999999
 11
153.61487349999999
 21
136.83270049999999
  0
LINE
  8
_0-0_0
  6
CONTINUOUS
 62
    7
 10
153.47183749999999
 20
135.91248849999999
 11
153.4550605
 21
135.13142149999999
  0
LINE
  8
_0-0_0
  6
CONTINUOUS
 62
    7
 10
148.0158515
 20
133.61752149999998
 11
147.76917049999997
 21
133.96638249999998
  0
LINE
  8
_0-0_0
  6
CONTINUOUS
 62
    7
 10
148.83295949999999
 20
132.6581855
 11
148.73663049999999
 21
132.9034705
  0
LINE
  8
_0-0_0
  6
CONTINUOUS
 62
    7
 10
149.05333450000001
 20
132.91859249999999
 11
149.15328749999998
 21
132.79926849999998
  0
LINE
  8
_0-0_0
  6
CONTINUOUS
 62
    7
 10
149.3331575
 20
132.9059125
 11
149.13329049999999
 21
133.1445755
  0
LINE
  8
_0-0_0
  6
CONTINUOUS
 62
    7
 10
150.04346950000001
 20
132.49474949999998
 11
150.0129905
 21
132.31204049999999
  0
LINE
  8
_0-0_0
  6
CONTINUOUS
 62
    7
 10
161.72607549999998
 20
146.62334949999999
 11
161.85303249999998
 21
146.11485049999999
  0
LINE
  8
_0-0_0
  6
CONTINUOUS
 62
    7
 10
163.3099105
 20
146.19537149999999
 11
163.7085045
 21
146.74645749999999
  0
LINE
  8
_0-0_0
  6
CONTINUOUS
 62
    7
 10
162.83153249999998
 20
148.15208249999998
 11
163.11936649999998
 21
147.9127785
  0
LINE
  8
_0-0_0
  6
CONTINUOUS
 62
    7
 10
161.67681949999999
 20
147.17481749999999
 11
161.46259449999999
 21
147.31768549999998
  0
LINE
  8
_0-0_0
  6
CONTINUOUS
 62
    7
 10
161.50772949999998
 20
146.09486149999998
 11
161.31638849999999
 21
146.33016749999999
  0
LINE
  8
_0-0_0
  6
CONTINUOUS
 62
    7
 10
161.46843050000001
 20
144.8235305
 11
161.14898049999999
 21
145.2214185
  0
LINE
  8
_0-0_0
  6
CONTINUOUS
 62
    7
 10
162.02731849999998
 20
145.21067549999998
 11
161.9296195
 21
145.50143249999999
  0
LINE
  8
_0-0_0
  6
CONTINUOUS
 62
    7
 10
162.59745849999999
 20
145.2475565
 11
163.1004835
 21
145.51341049999999
  0
LINE
  8
_0-0_0
  6
CONTINUOUS
 62
    7
 10
163.22334050000001
 20
147.2027875
 11
163.22639949999999
 21
147.03935049999998
  0
LINE
  8
_0-0_0
  6
CONTINUOUS
 62
    7
 10
162.81481650000001
 20
143.68189749999999
 11
162.26131549999999
 21
143.3629895
  0
LINE
  8
_0-0_0
  6
CONTINUOUS
 62
    7
 10
163.43426249999999
 20
144.1752295
 11
162.81481650000001
 21
143.68189749999999
  0
LINE
  8
_0-0_0
  6
CONTINUOUS
 62
    7
 10
164.07983149999998
 20
144.79281449999999
 11
163.43426249999999
 21
144.1752295
  0
LINE
  8
_0-0_0
  6
CONTINUOUS
 62
    7
 10
164.71175149999999
 20
145.48443349999999
 11
164.07983149999998
 21
144.79281449999999
  0
LINE
  8
_0-0_0
  6
CONTINUOUS
 62
    7
 10
165.29016949999999
 20
146.1999495
 11
164.71175149999999
 21
145.48443349999999
  0
LINE
  8
_0-0_0
  6
CONTINUOUS
 62
    7
 10
145.6867345
 20
146.59541149999998
 11
145.39112649999998
 21
147.0466595
  0
LINE
  8
_0-0_0
  6
CONTINUOUS
 62
    7
 10
144.70000949999999
 20
143.19985749999998
 11
144.13029949999998
 21
143.98409849999999
  0
LINE
  8
_0-0_0
  6
CONTINUOUS
 62
    7
 10
145.2606175
 20
142.46394149999998
 11
144.70000949999999
 21
143.19985749999998
  0
LINE
  8
_0-0_0
  6
CONTINUOUS
 62
    7
 10
145.78060649999998
 20
141.83901749999998
 11
145.2606175
 21
142.46394149999998
  0
LINE
  8
_0-0_0
  6
CONTINUOUS
 62
    7
 10
146.48670749999999
 20
141.03425349999998
 11
146.57236949999998
 21
141.17266649999999
  0
LINE
  8
_0-0_0
  6
CONTINUOUS
 62
    7
 10
146.57236949999998
 20
141.17266649999999
 11
146.2283985
 21
141.3877545
  0
LINE
  8
_0-0_0
  6
CONTINUOUS
 62
    7
 10
147.0832035
 20
139.3995645
 11
146.70962249999999
 21
140.09420549999999
  0
LINE
  8
_0-0_0
  6
CONTINUOUS
 62
    7
 10
147.48066449999999
 20
138.70147549999999
 11
147.0832035
 21
139.3995645
  0
LINE
  8
_0-0_0
  6
CONTINUOUS
 62
    7
 10
158.84134749999998
 20
151.7449015
 11
158.97980949999999
 21
151.86906249999998
  0
LINE
  8
_0-0_0
  6
CONTINUOUS
 62
    7
 10
158.14334650000001
 20
151.76672149999999
 11
158.6017085
 21
151.5180335
  0
LINE
  8
_0-0_0
  6
CONTINUOUS
 62
    7
 10
158.4193205
 20
149.8258495
 11
158.80154149999998
 21
150.1611005
  0
LINE
  8
_0-0_0
  6
CONTINUOUS
 62
    7
 10
158.0989395
 20
149.48653949999999
 11
158.4193205
 21
149.8258495
  0
LINE
  8
_0-0_0
  6
CONTINUOUS
 62
    7
 10
157.7512485
 20
148.88703749999999
 11
157.83135349999998
 21
148.66712749999999
  0
LINE
  8
_0-0_0
  6
CONTINUOUS
 62
    7
 10
156.2073905
 20
148.7020545
 11
156.29241249999998
 21
148.8070505
  0
LINE
  8
_0-0_0
  6
CONTINUOUS
 62
    7
 10
157.1606415
 20
150.37789649999999
 11
157.0760085
 21
150.64310949999998
  0
LINE
  8
_0-0_0
  6
CONTINUOUS
 62
    7
 10
156.97081850000001
 20
158.21848849999998
 11
156.14499749999999
 21
157.61579649999999
  0
LINE
  8
_0-0_0
  6
CONTINUOUS
 62
    7
 10
157.5250365
 20
156.2240735
 11
157.55767950000001
 21
156.9835645
  0
LINE
  8
_0-0_0
  6
CONTINUOUS
 62
    7
 10
157.79017349999998
 20
154.87403649999999
 11
157.7739685
 21
154.7441235
  0
LINE
  8
_0-0_0
  6
CONTINUOUS
 62
    7
 10
156.96362049999999
 20
152.58381449999999
 11
156.79733049999999
 21
152.43047849999999
  0
LINE
  8
_0-0_0
  6
CONTINUOUS
 62
    7
 10
156.77729549999998
 20
151.1256085
 11
156.45995449999998
 21
150.99943349999998
  0
LINE
  8
_0-0_0
  6
CONTINUOUS
 62
    7
 10
156.1502965
 20
149.11193649999998
 11
156.1704575
 21
149.22921549999998
  0
LINE
  8
_0-0_0
  6
CONTINUOUS
 62
    7
 10
155.13818049999998
 20
147.99856349999999
 11
155.34865350000001
 21
147.8650945
  0
LINE
  8
_0-0_0
  6
CONTINUOUS
 62
    7
 10
156.86030349999999
 20
147.46503949999999
 11
156.1086325
 21
147.02818049999999
  0
LINE
  8
_0-0_0
  6
CONTINUOUS
 62
    7
 10
156.89943049999999
 20
147.5205205
 11
157.3683825
 21
147.68755849999999
  0
LINE
  8
_0-0_0
  6
CONTINUOUS
 62
    7
 10
157.83135349999998
 20
148.66712749999999
 11
157.24340549999999
 21
149.09245049999998
  0
LINE
  8
_0-0_0
  6
CONTINUOUS
 62
    7
 10
157.52674249999998
 20
148.0329265
 11
157.64589849999999
 21
147.98078749999999
  0
LINE
  8
_0-0_0
  6
CONTINUOUS
 62
    7
 10
156.2668855
 20
146.96551349999999
 11
156.3389445
 21
146.9177225
  0
LINE
  8
_0-0_0
  6
CONTINUOUS
 62
    7
 10
154.92783850000001
 20
145.6477945
 11
155.0134635
 21
145.57639849999998
  0
LINE
  8
_0-0_0
  6
CONTINUOUS
 62
    7
 10
155.0134635
 20
145.57639849999998
 11
154.81851649999999
 21
145.37519649999999
  0
LINE
  8
_0-0_0
  6
CONTINUOUS
 62
    7
 10
156.3389445
 20
146.9177225
 11
156.33394749999999
 21
147.0040415
  0
LINE
  8
_0-0_0
  6
CONTINUOUS
 62
    7
 10
157.3683825
 20
147.68755849999999
 11
157.2720655
 21
147.85520749999998
  0
LINE
  8
_0-0_0
  6
CONTINUOUS
 62
    7
 10
157.6715135
 20
149.33346349999999
 11
158.0989395
 21
149.48653949999999
  0
LINE
  8
_0-0_0
  6
CONTINUOUS
 62
    7
 10
154.72741450000001
 20
144.83227349999999
 11
154.18939749999998
 21
144.27372549999998
  0
LINE
  8
_0-0_0
  6
CONTINUOUS
 62
    7
 10
154.18939749999998
 20
144.27372549999998
 11
153.9287765
 21
144.04308849999998
  0
LINE
  8
_0-0_0
  6
CONTINUOUS
 62
    7
 10
154.1113785
 20
144.96726749999999
 11
154.69868249999999
 21
146.2594125
  0
LINE
  8
_0-0_0
  6
CONTINUOUS
 62
    7
 10
154.78634349999999
 20
146.82845849999998
 11
154.67023949999998
 21
146.71716049999998
  0
LINE
  8
_0-0_0
  6
CONTINUOUS
 62
    7
 10
154.69424149999998
 20
149.21690149999998
 11
154.8227205
 21
148.7489295
  0
LINE
  8
_0-0_0
  6
CONTINUOUS
 62
    7
 10
154.96498650000001
 20
151.7621595
 11
155.0488555
 21
150.94852949999998
  0
LINE
  8
_0-0_0
  6
CONTINUOUS
 62
    7
 10
103.6969055
 20
122.40467649999999
 11
103.7546675
 21
122.54852149999999
  0
LINE
  8
_0-0_0
  6
CONTINUOUS
 62
    7
 10
103.7546675
 20
122.54852149999999
 11
103.8323805
 21
122.28097349999999
  0
LINE
  8
_0-0_0
  6
CONTINUOUS
 62
    7
 10
108.10589449999999
 20
122.19416649999999
 11
107.45209349999999
 21
122.43795649999998
  0
LINE
  8
_0-0_0
  6
CONTINUOUS
 62
    7
 10
109.3019085
 20
121.62760749999998
 11
110.05003149999999
 21
121.52720449999998
  0
LINE
  8
_0-0_0
  6
CONTINUOUS
 62
    7
 10
111.31636649999999
 20
121.49659549999998
 11
111.6920375
 21
121.0159815
  0
LINE
  8
_0-0_0
  6
CONTINUOUS
 62
    7
 10
112.4260235
 20
119.99555049999999
 11
113.05946949999999
 21
119.15569149999999
  0
LINE
  8
_0-0_0
  6
CONTINUOUS
 62
    7
 10
115.37943849999999
 20
118.02989049999999
 11
115.39053149999999
 21
118.4591045
  0
LINE
  8
_0-0_0
  6
CONTINUOUS
 62
    7
 10
115.6205045
 20
117.50107449999999
 11
115.5143255
 21
117.47311249999998
  0
LINE
  8
_0-0_0
  6
CONTINUOUS
 62
    7
 10
118.14467449999999
 20
120.24629849999999
 11
118.16103149999999
 21
119.93030349999999
  0
LINE
  8
_0-0_0
  6
CONTINUOUS
 62
    7
 10
117.65879649999999
 20
120.85911349999999
 11
117.8803995
 21
120.82123349999999
  0
LINE
  8
_0-0_0
  6
CONTINUOUS
 62
    7
 10
118.25787149999999
 20
120.68462949999999
 11
118.51850649999999
 21
120.3718775
  0
LINE
  8
_0-0_0
  6
CONTINUOUS
 62
    7
 10
121.1497555
 20
119.87175549999999
 11
120.96059249999999
 21
120.08021349999999
  0
LINE
  8
_0-0_0
  6
CONTINUOUS
 62
    7
 10
121.56454249999999
 20
117.8272995
 11
121.43054749999999
 21
118.44569949999999
  0
LINE
  8
_0-0_0
  6
CONTINUOUS
 62
    7
 10
137.98354849999998
 20
110.09026949999999
 11
138.18902349999999
 21
110.04312749999998
  0
LINE
  8
_0-0_0
  6
CONTINUOUS
 62
    7
 10
138.77673849999999
 20
113.05668449999999
 11
138.64259849999999
 21
113.29015949999999
  0
LINE
  8
_0-0_0
  6
CONTINUOUS
 62
    7
 10
138.64259849999999
 20
113.29015949999999
 11
138.51273850000001
 21
113.51618749999999
  0
LINE
  8
_0-0_0
  6
CONTINUOUS
 62
    7
 10
139.32453649999999
 20
115.97297549999999
 11
139.41341949999997
 21
115.71185149999999
  0
LINE
  8
_0-0_0
  6
CONTINUOUS
 62
    7
 10
140.31953149999998
 20
119.91925649999999
 11
140.5569285
 21
119.8970545
  0
LINE
  8
_0-0_0
  6
CONTINUOUS
 62
    7
 10
140.9123735
 20
119.1432555
 11
141.01926950000001
 21
119.01472349999999
  0
LINE
  8
_0-0_0
  6
CONTINUOUS
 62
    7
 10
143.06858549999998
 20
115.91069649999999
 11
143.1791815
 21
115.71819949999998
  0
LINE
  8
_0-0_0
  6
CONTINUOUS
 62
    7
 10
143.5318575
 20
115.40049549999999
 11
143.80627149999998
 21
115.94634049999999
  0
LINE
  8
_0-0_0
  6
CONTINUOUS
 62
    7
 10
144.09265649999998
 20
115.18916149999998
 11
144.39515449999999
 21
115.05077949999999
  0
LINE
  8
_0-0_0
  6
CONTINUOUS
 62
    7
 10
135.2925085
 20
109.80612049999999
 11
135.38882949999999
 21
109.63847149999999
  0
LINE
  8
_0-0_0
  6
CONTINUOUS
 62
    7
 10
132.3317395
 20
110.37956849999999
 11
132.15836849999999
 21
110.68134149999999
  0
LINE
  8
_0-0_0
  6
CONTINUOUS
 62
    7
 10
145.67972349999999
 20
102.43905449999998
 11
145.60830449999997
 21
102.66396949999999
  0
LINE
  8
_0-0_0
  6
CONTINUOUS
 62
    7
 10
145.6710865
 20
102.55468649999999
 11
145.67972349999999
 21
102.43905449999998
  0
LINE
  8
_0-0_0
  6
CONTINUOUS
 62
    7
 10
147.44936849999999
 20
103.53343049999999
 11
147.35418449999997
 21
103.29375349999999
  0
LINE
  8
_0-0_0
  6
CONTINUOUS
 62
    7
 10
146.5114265
 20
103.52148249999999
 11
146.9188815
 21
103.77537349999999
  0
LINE
  8
_0-0_0
  6
CONTINUOUS
 62
    7
 10
146.26119749999998
 20
103.47680549999998
 11
146.5114265
 21
103.52148249999999
  0
LINE
  8
_0-0_0
  6
CONTINUOUS
 62
    7
 10
114.45593849999999
 20
112.15081649999999
 11
114.4801995
 21
112.0309585
  0
LINE
  8
_0-0_0
  6
CONTINUOUS
 62
    7
 10
113.87155749999999
 20
112.7251795
 11
113.9061485
 21
112.5154635
  0
LINE
  8
_0-0_0
  6
CONTINUOUS
 62
    7
 10
113.16692949999999
 20
112.76138149999998
 11
113.75388149999999
 21
112.9070115
  0
LINE
  8
_0-0_0
  6
CONTINUOUS
 62
    7
 10
112.45973749999999
 20
112.52026949999998
 11
112.68856649999999
 21
112.66824149999999
  0
LINE
  8
_0-0_0
  6
CONTINUOUS
 62
    7
 10
115.95518249999999
 20
115.98706649999998
 11
115.71279749999999
 21
116.17320049999999
  0
LINE
  8
_0-0_0
  6
CONTINUOUS
 62
    7
 10
116.31850949999999
 20
115.89517849999999
 11
116.40055649999999
 21
115.7523715
  0
LINE
  8
_0-0_0
  6
CONTINUOUS
 62
    7
 10
119.1545465
 20
112.97720149999999
 11
119.0339635
 21
113.26471549999999
  0
LINE
  8
_0-0_0
  6
CONTINUOUS
 62
    7
 10
118.54874249999999
 20
113.7441085
 11
118.6872075
 21
113.86825349999999
  0
LINE
  8
_0-0_0
  6
CONTINUOUS
 62
    7
 10
115.6461085
 20
123.10046249999999
 11
116.1445215
 21
122.61215049999998
  0
LINE
  8
_0-0_0
  6
CONTINUOUS
 62
    7
 10
116.56674749999999
 20
121.9933145
 11
116.9646585
 21
121.34567049999998
  0
LINE
  8
_0-0_0
  6
CONTINUOUS
 62
    7
 10
117.18073849999999
 20
120.70504549999998
 11
117.24716749999999
 21
120.48882149999999
  0
LINE
  8
_0-0_0
  6
CONTINUOUS
 62
    7
 10
115.62691249999999
 20
120.22690449999999
 11
115.5391975
 21
120.66708949999999
  0
LINE
  8
_0-0_0
  6
CONTINUOUS
 62
    7
 10
115.8396205
 20
119.36794849999998
 11
115.72954349999999
 21
119.79528649999999
  0
LINE
  8
_0-0_0
  6
CONTINUOUS
 62
    7
 10
156.80766449999999
 20
160.69624049999999
 11
157.48468549999998
 21
161.66099349999999
  0
LINE
  8
_0-0_0
  6
CONTINUOUS
 62
    7
 10
157.48468549999998
 20
161.66099349999999
 11
157.08212749999998
 21
159.37022149999999
  0
LINE
  8
_0-0_0
  6
CONTINUOUS
 62
    7
 10
131.62223549999999
 20
130.2375625
 11
130.96571849999998
 21
130.26959049999999
  0
LINE
  8
_0-0_0
  6
CONTINUOUS
 62
    7
 10
130.6093425
 20
130.8577095
 11
131.62223549999999
 21
130.2375625
  0
LINE
  8
_0-0_0
  6
CONTINUOUS
 62
    7
 10
131.1549205
 20
131.4527875
 11
130.24828149999999
 21
131.54702549999999
  0
LINE
  8
_0-0_0
  6
CONTINUOUS
 62
    7
 10
129.89635249999998
 20
132.35214049999999
 11
131.1549205
 21
131.4527875
  0
LINE
  8
_0-0_0
  6
CONTINUOUS
 62
    7
 10
130.63992049999999
 20
132.7956375
 11
129.6492595
 21
133.04282949999998
  0
LINE
  8
_0-0_0
  6
CONTINUOUS
 62
    7
 10
129.51051150000001
 20
133.5045605
 11
130.63992049999999
 21
132.7956375
  0
LINE
  8
_0-0_0
  6
CONTINUOUS
 62
    7
 10
130.89697849999999
 20
134.7592295
 11
130.32493349999999
 21
135.92345949999998
  0
LINE
  8
_0-0_0
  6
CONTINUOUS
 62
    7
 10
132.12695049999999
 20
134.22576749999999
 11
131.26034349999998
 21
135.87782049999998
  0
LINE
  8
_0-0_0
  6
CONTINUOUS
 62
    7
 10
130.7147195
 20
135.96259849999998
 11
130.89697849999999
 21
134.7592295
  0
LINE
  8
_0-0_0
  6
CONTINUOUS
 62
    7
 10
133.22083049999998
 20
133.3040905
 11
131.85790750000001
 21
135.84910349999998
  0
LINE
  8
_0-0_0
  6
CONTINUOUS
 62
    7
 10
131.57924449999999
 20
135.85090449999998
 11
132.12695049999999
 21
134.22576749999999
  0
LINE
  8
_0-0_0
  6
CONTINUOUS
 62
    7
 10
132.22656749999999
 20
135.8778365
 11
133.22083049999998
 21
133.3040905
  0
LINE
  8
_0-0_0
  6
CONTINUOUS
 62
    7
 10
134.40701849999999
 20
136.77587649999998
 11
133.58749949999998
 21
137.24401649999999
  0
LINE
  8
_0-0_0
  6
CONTINUOUS
 62
    7
 10
133.34325949999999
 20
137.97546149999999
 11
134.40701849999999
 21
136.77587649999998
  0
LINE
  8
_0-0_0
  6
CONTINUOUS
 62
    7
 10
134.4297085
 20
137.76328849999999
 11
133.15053349999999
 21
138.7021005
  0
LINE
  8
_0-0_0
  6
CONTINUOUS
 62
    7
 10
133.97256949999999
 20
139.1393875
 11
132.97585849999999
 21
140.53483349999999
  0
LINE
  8
_0-0_0
  6
CONTINUOUS
 62
    7
 10
132.97428650000001
 20
140.29650649999999
 11
134.4297085
 21
137.76328849999999
  0
LINE
  8
_0-0_0
  6
CONTINUOUS
 62
    7
 10
133.03300250000001
 20
141.32769549999998
 11
133.97256949999999
 21
139.1393875
  0
LINE
  8
_0-0_0
  6
CONTINUOUS
 62
    7
 10
134.92637350000001
 20
139.44378449999999
 11
133.10029349999999
 21
141.77117749999999
  0
LINE
  8
_0-0_0
  6
CONTINUOUS
 62
    7
 10
133.20940150000001
 20
142.2360515
 11
134.92637350000001
 21
139.44378449999999
  0
LINE
  8
_0-0_0
  6
CONTINUOUS
 62
    7
 10
139.66362549999999
 20
142.8962995
 11
138.2895335
 21
144.41279349999999
  0
LINE
  8
_0-0_0
  6
CONTINUOUS
 62
    7
 10
138.19112150000001
 20
145.45924149999999
 11
139.66362549999999
 21
142.8962995
  0
LINE
  8
_0-0_0
  6
CONTINUOUS
 62
    7
 10
138.96688649999999
 20
144.55547849999999
 11
138.18108849999999
 21
145.7302985
  0
LINE
  8
_0-0_0
  6
CONTINUOUS
 62
    7
 10
139.3282375
 20
146.06965449999998
 11
138.31775449999998
 21
147.8284285
  0
LINE
  8
_0-0_0
  6
CONTINUOUS
 62
    7
 10
138.2268115
 20
147.09760849999998
 11
138.96688649999999
 21
144.55547849999999
  0
LINE
  8
_0-0_0
  6
CONTINUOUS
 62
    7
 10
139.8421755
 20
147.18430849999999
 11
138.65824649999999
 21
149.3376135
  0
LINE
  8
_0-0_0
  6
CONTINUOUS
 62
    7
 10
138.5323305
 20
148.87896549999999
 11
139.3282375
 21
146.06965449999998
  0
LINE
  8
_0-0_0
  6
CONTINUOUS
 62
    7
 10
140.11790250000001
 20
148.9814585
 11
139.10197249999999
 21
150.57325549999999
  0
LINE
  8
_0-0_0
  6
CONTINUOUS
 62
    7
 10
138.89561950000001
 20
150.05222849999998
 11
139.8421755
 21
147.18430849999999
  0
LINE
  8
_0-0_0
  6
CONTINUOUS
 62
    7
 10
139.34093250000001
 20
151.09988149999998
 11
140.11790250000001
 21
148.9814585
  0
LINE
  8
_0-0_0
  6
CONTINUOUS
 62
    7
 10
141.90038049999998
 20
149.5847905
 11
140.78208649999999
 21
151.88751049999999
  0
LINE
  8
_0-0_0
  6
CONTINUOUS
 62
    7
 10
142.65083049999998
 20
149.52876049999998
 11
141.53442150000001
 21
151.70005549999999
  0
LINE
  8
_0-0_0
  6
CONTINUOUS
 62
    7
 10
141.31513749999999
 20
151.77750949999998
 11
141.90038049999998
 21
149.5847905
  0
LINE
  8
_0-0_0
  6
CONTINUOUS
 62
    7
 10
143.00677250000001
 20
149.4896675
 11
142.6022845
 21
150.95380949999998
  0
LINE
  8
_0-0_0
  6
CONTINUOUS
 62
    7
 10
142.40930650000001
 20
151.1492135
 11
142.65083049999998
 21
149.52876049999998
  0
LINE
  8
_0-0_0
  6
CONTINUOUS
 62
    7
 10
142.99895950000001
 20
150.52845549999998
 11
143.00677250000001
 21
149.4896675
  0
LINE
  8
_0-0_0
  6
CONTINUOUS
 62
    7
 10
144.86933649999997
 20
150.98052749999999
 11
143.96082050000001
 21
152.3820475
  0
LINE
  8
_0-0_0
  6
CONTINUOUS
 62
    7
 10
144.05541749999998
 20
153.40119749999999
 11
144.86933649999997
 21
150.98052749999999
  0
LINE
  8
_0-0_0
  6
CONTINUOUS
 62
    7
 10
145.6293465
 20
150.9078495
 11
144.11337750000001
 21
153.78021049999998
  0
LINE
  8
_0-0_0
  6
CONTINUOUS
 62
    7
 10
144.31060550000001
 20
154.71452149999999
 11
145.6293465
 21
150.9078495
  0
LINE
  8
_0-0_0
  6
CONTINUOUS
 62
    7
 10
145.05234250000001
 20
153.78738149999998
 11
144.39075249999999
 21
155.01424949999998
  0
LINE
  8
_0-0_0
  6
CONTINUOUS
 62
    7
 10
144.6211065
 20
155.74229249999999
 11
145.05234250000001
 21
153.78738149999998
  0
LINE
  8
_0-0_0
  6
CONTINUOUS
 62
    7
 10
145.67290249999999
 20
155.11829949999998
 11
144.8629885
 21
156.3716565
  0
LINE
  8
_0-0_0
  6
CONTINUOUS
 62
    7
 10
145.1808595
 20
157.06930349999999
 11
145.67290249999999
 21
155.11829949999998
  0
LINE
  8
_0-0_0
  6
CONTINUOUS
 62
    7
 10
148.72400449999998
 20
158.2817665
 11
149.7297265
 21
156.62971249999998
  0
LINE
  8
_0-0_0
  6
CONTINUOUS
 62
    7
 10
149.57574949999997
 20
156.62983449999999
 11
149.1443835
 21
158.9765755
  0
LINE
  8
_0-0_0
  6
CONTINUOUS
 62
    7
 10
150.42634349999997
 20
157.69430349999999
 11
149.66476949999998
 21
160.00306449999999
  0
LINE
  8
_0-0_0
  6
CONTINUOUS
 62
    7
 10
149.88444249999998
 20
160.51695049999998
 11
150.99813549999999
 21
158.84219149999998
  0
LINE
  8
_0-0_0
  6
CONTINUOUS
 62
    7
 10
150.99813549999999
 20
158.84219149999998
 11
150.36465149999998
 21
161.45016249999998
  0
LINE
  8
_0-0_0
  6
CONTINUOUS
 62
    7
 10
150.5403345
 20
161.6972025
 11
151.67314649999997
 21
159.2300085
  0
LINE
  8
_0-0_0
  6
CONTINUOUS
 62
    7
 10
149.37640149999999
 20
159.40693449999998
 11
150.42634349999997
 21
157.69430349999999
  0
LINE
  8
_0-0_0
  6
CONTINUOUS
 62
    7
 10
151.67314649999997
 20
159.2300085
 11
151.3907365
 21
162.6758395
  0
LINE
  8
_0-0_0
  6
CONTINUOUS
 62
    7
 10
151.70969149999999
 20
162.97302049999999
 11
152.5640085
 21
160.80480749999998
  0
LINE
  8
_0-0_0
  6
CONTINUOUS
 62
    7
 10
152.5640085
 20
160.80480749999998
 11
152.2396215
 21
163.4034245
  0
LINE
  8
_0-0_0
  6
CONTINUOUS
 62
    7
 10
152.56763949999998
 20
163.6357395
 11
153.35644250000001
 21
161.74726649999999
  0
LINE
  8
_0-0_0
  6
CONTINUOUS
 62
    7
 10
153.35644250000001
 20
161.74726649999999
 11
153.05174749999998
 21
163.93734549999999
  0
LINE
  8
_0-0_0
  6
CONTINUOUS
 62
    7
 10
156.56487749999999
 20
163.81055949999998
 11
156.3017705
 21
161.88931049999999
  0
LINE
  8
_0-0_0
  6
CONTINUOUS
 62
    7
 10
156.3017705
 20
161.88931049999999
 11
157.1897405
 21
162.81236049999998
  0
LINE
  8
_0-0_0
  6
CONTINUOUS
 62
    7
 10
157.3756995
 20
162.40224949999998
 11
156.80766449999999
 21
160.69624049999999
  0
LINE
  8
_0-0_0
  6
CONTINUOUS
 62
    7
 10
157.08212749999998
 20
159.37022149999999
 11
157.89995349999998
 21
160.28175149999998
  0
LINE
  8
_0-0_0
  6
CONTINUOUS
 62
    7
 10
158.49833050000001
 20
159.1803415
 11
158.15301649999998
 21
157.37235749999999
  0
LINE
  8
_0-0_0
  6
CONTINUOUS
 62
    7
 10
158.15301649999998
 20
157.37235749999999
 11
158.94164050000001
 21
158.53742749999998
  0
LINE
  8
_0-0_0
  6
CONTINUOUS
 62
    7
 10
159.06376749999998
 20
158.2641275
 11
158.30358649999999
 21
156.3959175
  0
LINE
  8
_0-0_0
  6
CONTINUOUS
 62
    7
 10
161.4831135
 20
154.70159649999999
 11
161.6629495
 21
156.04102849999998
  0
LINE
  8
_0-0_0
  6
CONTINUOUS
 62
    7
 10
162.01961649999998
 20
156.29389749999999
 11
162.4853645
 21
155.10026349999998
  0
LINE
  8
_0-0_0
  6
CONTINUOUS
 62
    7
 10
162.4853645
 20
155.10026349999998
 11
162.38586549999999
 21
156.4834415
  0
LINE
  8
_0-0_0
  6
CONTINUOUS
 62
    7
 10
160.81519449999999
 20
153.5870645
 11
160.7978335
 21
155.5954715
  0
LINE
  8
_0-0_0
  6
CONTINUOUS
 62
    7
 10
161.13431649999998
 20
155.73422049999999
 11
161.4831135
 21
154.70159649999999
  0
LINE
  8
_0-0_0
  6
CONTINUOUS
 62
    7
 10
160.31648749999999
 20
155.4419225
 11
160.81519449999999
 21
153.5870645
  0
LINE
  8
_0-0_0
  6
CONTINUOUS
 62
    7
 10
158.30358649999999
 20
156.3959175
 11
159.27963749999998
 21
157.14768749999999
  0
LINE
  8
_0-0_0
  6
CONTINUOUS
 62
    7
 10
125.94997149999999
 20
117.53047749999999
 11
124.75497249999999
 21
117.58906349999999
  0
LINE
  8
_0-0_0
  6
CONTINUOUS
 62
    7
 10
125.94997149999999
 20
117.53047749999999
 11
124.75497249999999
 21
117.58906349999999
  0
LINE
  8
_0-0_0
  6
CONTINUOUS
 62
    7
 10
125.4699225
 20
115.63029349999999
 11
126.4571665
 21
115.82736849999999
  0
LINE
  8
_0-0_0
  6
CONTINUOUS
 62
    7
 10
126.29298949999999
 20
116.27775449999999
 11
125.46344549999999
 21
116.53452849999999
  0
LINE
  8
_0-0_0
  6
CONTINUOUS
 62
    7
 10
126.64114149999999
 20
115.38474149999999
 11
125.4699225
 21
115.63029349999999
  0
LINE
  8
_0-0_0
  6
CONTINUOUS
 62
    7
 10
127.8957995
 20
111.00862149999999
 11
127.62243849999999
 21
113.24378149999998
  0
LINE
  8
_0-0_0
  6
CONTINUOUS
 62
    7
 10
129.6943875
 20
110.01875149999999
 11
128.81456550000001
 21
112.34422149999999
  0
LINE
  8
_0-0_0
  6
CONTINUOUS
 62
    7
 10
127.9944785
 20
112.74386549999998
 11
127.8957995
 21
111.00862149999999
  0
ARC
  8
_0-0_0
  6
CONTINUOUS
 62
    7
 10
136.52729549999998
 20
119.75341649999999
 40
10.808387
 50
215.00439700000001
 51
221.788509
  0
ARC
  8
_0-0_0
  6
CONTINUOUS
 62
    7
 10
136.52729549999998
 20
119.75341649999999
 40
10.808387
 50
184.01276800000002
 51
215.00439700000001
  0
LINE
  8
_0-0_0
  6
CONTINUOUS
 62
    7
 10
130.95537350000001
 20
110.10102649999999
 11
129.96248349999999
 21
112.04546149999999
  0
LINE
  8
_0-0_0
  6
CONTINUOUS
 62
    7
 10
129.35969349999999
 20
112.13715249999998
 11
129.6943875
 21
110.01875149999999
  0
LINE
  8
_0-0_0
  6
CONTINUOUS
 62
    7
 10
132.22327949999999
 20
113.02874549999999
 11
133.3837025
 21
111.00899349999999
  0
LINE
  8
_0-0_0
  6
CONTINUOUS
 62
    7
 10
133.3837025
 20
111.00899349999999
 11
131.78295650000001
 21
112.61398949999999
  0
LINE
  8
_0-0_0
  6
CONTINUOUS
 62
    7
 10
133.3837025
 20
111.00899349999999
 11
131.78295650000001
 21
112.61398949999999
  0
LINE
  8
_0-0_0
  6
CONTINUOUS
 62
    7
 10
131.54799449999999
 20
112.45410749999999
 11
132.60346749999999
 21
110.80431949999999
  0
LINE
  8
_0-0_0
  6
CONTINUOUS
 62
    7
 10
132.60346749999999
 20
110.80431949999999
 11
131.1091285
 21
112.23666249999999
  0
LINE
  8
_0-0_0
  6
CONTINUOUS
 62
    7
 10
132.60346749999999
 20
110.80431949999999
 11
131.1091285
 21
112.23666249999999
  0
LINE
  8
_0-0_0
  6
CONTINUOUS
 62
    7
 10
130.46382649999998
 20
112.06885349999999
 11
130.95537350000001
 21
110.10102649999999
  0
LINE
  8
_0-0_0
  6
CONTINUOUS
 62
    7
 10
130.46382649999998
 20
112.06885349999999
 11
130.95537350000001
 21
110.10102649999999
  0
LINE
  8
_0-0_0
  6
CONTINUOUS
 62
    7
 10
131.19436450000001
 20
126.20492349999998
 11
129.4223155
 21
126.84449549999999
  0
LINE
  8
_0-0_0
  6
CONTINUOUS
 62
    7
 10
132.4306775
 20
127.49101049999999
 11
130.1074955
 21
128.1629925
  0
LINE
  8
_0-0_0
  6
CONTINUOUS
 62
    7
 10
129.74876949999998
 20
127.8146955
 11
131.19436450000001
 21
126.20492349999998
  0
LINE
  8
_0-0_0
  6
CONTINUOUS
 62
    7
 10
129.74876949999998
 20
127.8146955
 11
131.19436450000001
 21
126.20492349999998
  0
LINE
  8
_0-0_0
  6
CONTINUOUS
 62
    7
 10
129.74876949999998
 20
127.8146955
 11
131.19436450000001
 21
126.20492349999998
  0
LINE
  8
_0-0_0
  6
CONTINUOUS
 62
    7
 10
129.74876949999998
 20
127.8146955
 11
131.19436450000001
 21
126.20492349999998
  0
LINE
  8
_0-0_0
  6
CONTINUOUS
 62
    7
 10
130.77374850000001
 20
128.81129249999998
 11
132.4306775
 21
127.49101049999999
  0
LINE
  8
_0-0_0
  6
CONTINUOUS
 62
    7
 10
105.65815549999999
 20
95.028677499999986
 11
108.83624049999999
 21
95.156126499999985
  0
LINE
  8
_0-0_0
  6
CONTINUOUS
 62
    7
 10
109.3915085
 20
94.323607499999994
 11
107.39628449999999
 21
93.231825499999985
  0
LINE
  8
_0-0_0
  6
CONTINUOUS
 62
    7
 10
106.4160215
 20
93.988653499999984
 11
109.3915085
 21
94.323607499999994
  0
LINE
  8
_0-0_0
  6
CONTINUOUS
 62
    7
 10
108.83624049999999
 20
95.156126499999985
 11
106.16399149999999
 21
94.264265499999993
  0
LINE
  8
_0-0_0
  6
CONTINUOUS
 62
    7
 10
187.84219849999999
 20
96.900969499999988
 11
186.62581349999999
 21
98.070570499999988
  0
LINE
  8
_0-0_0
  6
CONTINUOUS
 62
    7
 10
186.62581349999999
 20
98.070570499999988
 11
187.30554649999999
 21
96.721586499999987
  0
LINE
  8
_0-0_0
  6
CONTINUOUS
 62
    7
 10
186.38164949999998
 20
96.478689499999987
 11
184.8063555
 21
97.885221499999986
  0
LINE
  8
_0-0_0
  6
CONTINUOUS
 62
    7
 10
185.39468449999998
 20
96.286284499999994
 11
183.97031849999999
 21
97.490889499999994
  0
LINE
  8
_0-0_0
  6
CONTINUOUS
 62
    7
 10
183.97031849999999
 20
97.490889499999994
 11
184.81730349999998
 21
96.204786499999983
  0
LINE
  8
_0-0_0
  6
CONTINUOUS
 62
    7
 10
184.23556550000001
 20
96.145384499999992
 11
182.6501705
 21
97.592398499999987
  0
LINE
  8
_0-0_0
  6
CONTINUOUS
 62
    7
 10
182.6501705
 20
97.592398499999987
 11
183.55596650000001
 21
96.104483499999986
  0
LINE
  8
_0-0_0
  6
CONTINUOUS
 62
    7
 10
181.55209450000001
 20
97.076185499999994
 11
182.17451549999998
 21
96.115263499999983
  0
LINE
  8
_0-0_0
  6
CONTINUOUS
 62
    7
 10
182.7273715
 20
96.095854499999987
 11
181.55209450000001
 21
97.076185499999994
  0
LINE
  8
_0-0_0
  6
CONTINUOUS
 62
    7
 10
178.5474935
 20
96.41058249999999
 11
179.76000249999998
 21
95.353430499999988
  0
LINE
  8
_0-0_0
  6
CONTINUOUS
 62
    7
 10
180.1347475
 20
95.623488499999993
 11
178.5474935
 21
96.41058249999999
  0
LINE
  8
_0-0_0
  6
CONTINUOUS
 62
    7
 10
179.06142849999998
 20
94.554777499999986
 11
176.36333550000001
 21
95.241705499999995
  0
LINE
  8
_0-0_0
  6
CONTINUOUS
 62
    7
 10
178.61958049999998
 20
93.456511499999991
 11
176.6944585
 21
93.740629499999983
  0
LINE
  8
_0-0_0
  6
CONTINUOUS
 62
    7
 10
178.7185375
 20
91.720724499999989
 11
176.0357525
 21
90.610212499999989
  0
LINE
  8
_0-0_0
  6
CONTINUOUS
 62
    7
 10
176.0357525
 20
90.610212499999989
 11
178.8564275
 21
91.370588499999997
  0
LINE
  8
_0-0_0
  6
CONTINUOUS
 62
    7
 10
179.16766849999999
 20
90.832121499999985
 11
176.86617749999999
 21
89.396010499999988
  0
LINE
  8
_0-0_0
  6
CONTINUOUS
 62
    7
 10
176.86617749999999
 20
89.396010499999988
 11
179.38863849999998
 21
90.553190499999985
  0
LINE
  8
_0-0_0
  6
CONTINUOUS
 62
    7
 10
180.0502515
 20
89.976866499999986
 11
179.03214349999999
 21
88.920462499999985
  0
LINE
  8
_0-0_0
  6
CONTINUOUS
 62
    7
 10
179.03214349999999
 20
88.920462499999985
 11
180.37746149999998
 21
89.785597499999994
  0
LINE
  8
_0-0_0
  6
CONTINUOUS
 62
    7
 10
183.12532849999999
 20
89.542692499999987
 11
181.5807695
 21
87.432112499999988
  0
LINE
  8
_0-0_0
  6
CONTINUOUS
 62
    7
 10
181.5807695
 20
87.432112499999988
 11
183.83064350000001
 21
89.661253499999987
  0
LINE
  8
_0-0_0
  6
CONTINUOUS
 62
    7
 10
184.8461125
 20
89.618544499999985
 11
184.58797149999998
 21
88.844526499999986
  0
LINE
  8
_0-0_0
  6
CONTINUOUS
 62
    7
 10
185.39743849999999
 20
88.764937499999988
 11
186.1205185
 21
89.18037249999999
  0
LINE
  8
_0-0_0
  6
CONTINUOUS
 62
    7
 10
187.32022549999999
 20
85.499388499999995
 11
185.3221135
 21
85.023695499999988
  0
LINE
  8
_0-0_0
  6
CONTINUOUS
 62
    7
 10
185.3221135
 20
85.023695499999988
 11
186.8257945
 21
84.780455499999988
  0
LINE
  8
_0-0_0
  6
CONTINUOUS
 62
    7
 10
186.61444549999999
 20
84.515455499999987
 11
184.65943249999998
 21
84.327635499999985
  0
LINE
  8
_0-0_0
  6
CONTINUOUS
 62
    7
 10
184.65943249999998
 20
84.327635499999985
 11
185.92327549999999
 21
83.776777499999994
  0
LINE
  8
_0-0_0
  6
CONTINUOUS
 62
    7
 10
185.5557445
 20
83.447447499999996
 11
184.1960765
 21
83.631422499999985
  0
LINE
  8
_0-0_0
  6
CONTINUOUS
 62
    7
 10
184.1960765
 20
83.631422499999985
 11
184.99917249999999
 21
83.014967499999983
  0
LINE
  8
_0-0_0
  6
CONTINUOUS
 62
    7
 10
184.5382625
 20
82.708319499999988
 11
182.41396449999999
 21
83.438864499999994
  0
LINE
  8
_0-0_0
  6
CONTINUOUS
 62
    7
 10
182.41396449999999
 20
83.438864499999994
 11
183.68495250000001
 21
82.244475499999993
  0
LINE
  8
_0-0_0
  6
CONTINUOUS
 62
    7
 10
182.96620250000001
 20
81.468558499999986
 11
180.85073149999999
 21
81.70941049999999
  0
LINE
  8
_0-0_0
  6
CONTINUOUS
 62
    7
 10
180.85073149999999
 20
81.70941049999999
 11
182.91413949999998
 21
81.021208499999986
  0
LINE
  8
_0-0_0
  6
CONTINUOUS
 62
    7
 10
181.05502049999998
 20
76.945349499999992
 11
178.08796749999999
 21
78.946776499999984
  0
LINE
  8
_0-0_0
  6
CONTINUOUS
 62
    7
 10
180.4505925
 20
76.193343499999983
 11
178.3324135
 21
77.59657949999999
  0
LINE
  8
_0-0_0
  6
CONTINUOUS
 62
    7
 10
178.3324135
 20
77.59657949999999
 11
180.17293649999999
 21
75.664091499999984
  0
LINE
  8
_0-0_0
  6
CONTINUOUS
 62
    7
 10
187.8403285
 20
99.829008499999986
 11
190.31226749999999
 21
99.502546499999994
  0
LINE
  8
_0-0_0
  6
CONTINUOUS
 62
    7
 10
190.0877045
 20
100.16710549999999
 11
187.8403285
 21
99.829008499999986
  0
LINE
  8
_0-0_0
  6
CONTINUOUS
 62
    7
 10
187.85651849999999
 20
100.89897049999999
 11
189.8828785
 21
100.58553149999999
  0
LINE
  8
_0-0_0
  6
CONTINUOUS
 62
    7
 10
176.36333550000001
 20
95.241705499999995
 11
178.76162449999998
 21
93.947828499999986
  0
LINE
  8
_0-0_0
  6
CONTINUOUS
 62
    7
 10
176.6944585
 20
93.740629499999983
 11
178.57281549999999
 21
93.170195499999991
  0
LINE
  8
_0-0_0
  6
CONTINUOUS
 62
    7
 10
184.8063555
 20
97.885221499999986
 11
185.90142549999999
 21
96.376600499999995
  0
LINE
  8
_0-0_0
  6
CONTINUOUS
 62
    7
 10
189.67855549999999
 20
101.19367849999999
 11
187.85651849999999
 21
100.89897049999999
  0
LINE
  8
_0-0_0
  6
CONTINUOUS
 62
    7
 10
189.58392749999999
 20
103.26740849999999
 11
190.64142249999998
 21
102.73351149999999
  0
LINE
  8
_0-0_0
  6
CONTINUOUS
 62
    7
 10
190.9192165
 20
102.87725649999999
 11
189.58392749999999
 21
103.26740849999999
  0
LINE
  8
_0-0_0
  6
CONTINUOUS
 62
    7
 10
192.5153315
 20
103.52795249999998
 11
191.16850749999998
 21
103.97714049999999
  0
LINE
  8
_0-0_0
  6
CONTINUOUS
 62
    7
 10
191.16850749999998
 20
103.97714049999999
 11
191.94517949999999
 21
103.31371949999999
  0
LINE
  8
_0-0_0
  6
CONTINUOUS
 62
    7
 10
192.61649749999998
 20
104.80906549999999
 11
193.34039749999999
 21
104.08235749999999
  0
LINE
  8
_0-0_0
  6
CONTINUOUS
 62
    7
 10
193.80095349999999
 20
104.55239749999998
 11
192.61649749999998
 21
104.80906549999999
  0
LINE
  8
_0-0_0
  6
CONTINUOUS
 62
    7
 10
192.52324349999998
 20
106.64746749999999
 11
193.74396949999999
 21
106.98132149999999
  0
LINE
  8
_0-0_0
  6
CONTINUOUS
 62
    7
 10
193.31737949999999
 20
107.28500249999999
 11
192.52324349999998
 21
106.64746749999999
  0
LINE
  8
_0-0_0
  6
CONTINUOUS
 62
    7
 10
191.57099549999998
 20
108.65166349999998
 11
193.8802455
 21
108.59034549999998
  0
LINE
  8
_0-0_0
  6
CONTINUOUS
 62
    7
 10
194.92047550000001
 20
110.1651445
 11
191.57099549999998
 21
108.65166349999998
  0
LINE
  8
_0-0_0
  6
CONTINUOUS
 62
    7
 10
192.24725749999999
 20
109.67086649999999
 11
195.0984315
 21
110.50342449999999
  0
LINE
  8
_0-0_0
  6
CONTINUOUS
 62
    7
 10
195.4727145
 20
111.32376749999999
 11
192.24725749999999
 21
109.67086649999999
  0
LINE
  8
_0-0_0
  6
CONTINUOUS
 62
    7
 10
193.5987825
 20
111.42201849999999
 11
195.69064750000001
 21
111.8999925
  0
LINE
  8
_0-0_0
  6
CONTINUOUS
 62
    7
 10
195.88191649999999
 20
112.50359949999999
 11
193.5987825
 21
111.42201849999999
  0
LINE
  8
_0-0_0
  6
CONTINUOUS
 62
    7
 10
184.58797149999998
 20
88.844526499999986
 11
185.4442875
 21
89.469145499999996
  0
LINE
  8
_0-0_0
  6
CONTINUOUS
 62
    7
 10
185.83271450000001
 20
89.320265499999991
 11
185.39743849999999
 21
88.764937499999988
  0
LINE
  8
_0-0_0
  6
CONTINUOUS
 62
    7
 10
178.08796749999999
 20
78.946776499999984
 11
180.63775749999999
 21
76.467863499999993
  0
LINE
  8
_0-0_0
  6
CONTINUOUS
 62
    7
 10
164.13010149999999
 20
112.97438649999999
 11
161.47031149999998
 21
111.33814849999999
  0
LINE
  8
_0-0_0
  6
CONTINUOUS
 62
    7
 10
161.47031149999998
 20
111.33814849999999
 11
163.9893615
 21
112.43107449999999
  0
LINE
  8
_0-0_0
  6
CONTINUOUS
 62
    7
 10
163.93309549999998
 20
111.98209249999999
 11
161.61569750000001
 21
110.16035349999999
  0
LINE
  8
_0-0_0
  6
CONTINUOUS
 62
    7
 10
161.61569750000001
 20
110.16035349999999
 11
163.93535750000001
 21
111.42157549999999
  0
LINE
  8
_0-0_0
  6
CONTINUOUS
 62
    7
 10
164.10720549999999
 20
110.5311955
 11
162.58153249999998
 21
108.47929249999999
  0
LINE
  8
_0-0_0
  6
CONTINUOUS
 62
    7
 10
162.58153249999998
 20
108.47929249999999
 11
164.29489649999999
 21
110.04973449999999
  0
LINE
  8
_0-0_0
  6
CONTINUOUS
 62
    7
 10
164.64924349999998
 20
109.44070249999999
 11
164.0504775
 21
108.17659649999999
  0
LINE
  8
_0-0_0
  6
CONTINUOUS
 62
    7
 10
164.0504775
 20
108.17659649999999
 11
165.01936849999998
 21
108.99261349999999
  0
LINE
  8
_0-0_0
  6
CONTINUOUS
 62
    7
 10
165.29084849999998
 20
108.73508249999999
 11
164.26694950000001
 21
105.95033149999999
  0
LINE
  8
_0-0_0
  6
CONTINUOUS
 62
    7
 10
164.26694950000001
 20
105.95033149999999
 11
165.8556265
 21
108.3728855
  0
LINE
  8
_0-0_0
  6
CONTINUOUS
 62
    7
 10
166.21038949999999
 20
108.19824849999999
 11
165.7109275
 21
105.63329949999999
  0
LINE
  8
_0-0_0
  6
CONTINUOUS
 62
    7
 10
166.98220950000001
 20
107.9342255
 11
166.7946135
 21
105.59658649999999
  0
LINE
  8
_0-0_0
  6
CONTINUOUS
 62
    7
 10
166.7946135
 20
105.59658649999999
 11
167.82731749999999
 21
107.80373949999999
  0
LINE
  8
_0-0_0
  6
CONTINUOUS
 62
    7
 10
168.10763649999998
 20
107.79438649999999
 11
167.8163845
 21
105.66764649999999
  0
LINE
  8
_0-0_0
  6
CONTINUOUS
 62
    7
 10
167.8163845
 20
105.66764649999999
 11
168.6448795
 21
107.8228975
  0
LINE
  8
_0-0_0
  6
CONTINUOUS
 62
    7
 10
165.7109275
 20
105.63329949999999
 11
166.7070895
 21
108.01144249999999
  0
LINE
  8
_0-0_0
  6
CONTINUOUS
 62
    7
 10
169.4549955
 20
107.9845795
 11
169.80001949999999
 21
106.49197949999999
  0
LINE
  8
_0-0_0
  6
CONTINUOUS
 62
    7
 10
169.80001949999999
 20
106.49197949999999
 11
169.81958850000001
 21
108.10733649999999
  0
LINE
  8
_0-0_0
  6
CONTINUOUS
 62
    7
 10
170.2511915
 20
108.29756049999999
 11
170.71154849999999
 21
107.10169049999999
  0
LINE
  8
_0-0_0
  6
CONTINUOUS
 62
    7
 10
170.71154849999999
 20
107.10169049999999
 11
170.65322549999999
 21
108.52432049999999
  0
LINE
  8
_0-0_0
  6
CONTINUOUS
 62
    7
 10
171.56714749999998
 20
109.27436649999999
 11
172.32110349999999
 21
107.8257735
  0
LINE
  8
_0-0_0
  6
CONTINUOUS
 62
    7
 10
172.32110349999999
 20
107.8257735
 11
172.10632049999998
 21
109.9598525
  0
LINE
  8
_0-0_0
  6
CONTINUOUS
 62
    7
 10
173.2977535
 20
109.24687849999999
 11
172.9131515
 21
111.54606449999999
  0
LINE
  8
_0-0_0
  6
CONTINUOUS
 62
    7
 10
173.25507049999999
 20
112.16714349999999
 11
173.71598949999998
 21
111.2931505
  0
LINE
  8
_0-0_0
  6
CONTINUOUS
 62
    7
 10
173.71598949999998
 20
111.2931505
 11
173.4213345
 21
112.44866049999999
  0
LINE
  8
_0-0_0
  6
CONTINUOUS
 62
    7
 10
172.59618449999999
 20
110.9092235
 11
173.2977535
 21
109.24687849999999
  0
LINE
  8
_0-0_0
  6
CONTINUOUS
 62
    7
 10
174.3173535
 20
112.26931649999999
 11
174.1272745
 21
113.52489349999999
  0
LINE
  8
_0-0_0
  6
CONTINUOUS
 62
    7
 10
174.5262075
 20
114.0633685
 11
174.9682545
 21
113.15927749999999
  0
LINE
  8
_0-0_0
  6
CONTINUOUS
 62
    7
 10
174.9682545
 20
113.15927749999999
 11
174.95301549999999
 21
114.59437349999999
  0
LINE
  8
_0-0_0
  6
CONTINUOUS
 62
    7
 10
175.26618249999999
 20
114.9580515
 11
175.80428749999999
 21
113.55361049999999
  0
LINE
  8
_0-0_0
  6
CONTINUOUS
 62
    7
 10
175.80428749999999
 20
113.55361049999999
 11
175.8981565
 21
115.63386349999999
  0
LINE
  8
_0-0_0
  6
CONTINUOUS
 62
    7
 10
176.92952449999999
 20
114.71609349999999
 11
176.70131749999999
 21
116.39664249999998
  0
LINE
  8
_0-0_0
  6
CONTINUOUS
 62
    7
 10
176.37940649999999
 20
116.10269749999999
 11
176.92952449999999
 21
114.71609349999999
  0
LINE
  8
_0-0_0
  6
CONTINUOUS
 62
    7
 10
177.03572149999999
 20
116.68663649999999
 11
177.7166335
 21
115.36897149999999
  0
LINE
  8
_0-0_0
  6
CONTINUOUS
 62
    7
 10
177.7166335
 20
115.36897149999999
 11
177.58957749999999
 21
117.13516049999998
  0
LINE
  8
_0-0_0
  6
CONTINUOUS
 62
    7
 10
181.58023549999999
 20
115.86878849999999
 11
181.33446949999998
 21
117.2895035
  0
LINE
  8
_0-0_0
  6
CONTINUOUS
 62
    7
 10
180.83176549999999
 20
117.03370449999998
 11
181.58023549999999
 21
115.86878849999999
  0
LINE
  8
_0-0_0
  6
CONTINUOUS
 62
    7
 10
181.5536395
 20
117.41691449999999
 11
182.07873949999998
 21
115.92585549999998
  0
LINE
  8
_0-0_0
  6
CONTINUOUS
 62
    7
 10
182.07873949999998
 20
115.92585549999998
 11
182.02182449999998
 21
117.7251345
  0
LINE
  8
_0-0_0
  6
CONTINUOUS
 62
    7
 10
182.45090949999999
 20
118.05648649999999
 11
183.0887305
 21
116.19080949999999
  0
LINE
  8
_0-0_0
  6
CONTINUOUS
 62
    7
 10
183.0887305
 20
116.19080949999999
 11
183.04043250000001
 21
118.7267895
  0
LINE
  8
_0-0_0
  6
CONTINUOUS
 62
    7
 10
185.42701449999998
 20
119.18699449999998
 11
185.20856950000001
 21
116.77807449999999
  0
LINE
  8
_0-0_0
  6
CONTINUOUS
 62
    7
 10
185.20856950000001
 20
116.77807449999999
 11
185.85918149999998
 21
118.70670949999999
  0
ARC
  8
_0-0_0
  6
CONTINUOUS
 62
    7
 10
121.5914595
 20
121.62725649999999
 40
3.8043749999999998
 50
76.521682999999996
 51
123.224918
  0
ARC
  8
_0-0_0
  6
CONTINUOUS
 62
    7
 10
139.14824449999998
 20
128.78558149999998
 40
9.9066670000000006
 50
195.53177299999999
 51
227.58233999999999
  0
ENDSEC
  0
EOF
