  0
SECTION
  2
HEADER
  9
$ACADVER
  1
AC1009
  9
$INSBASE
 10
0
 20
0
 30
0
  9
$EXTMIN
 10
0
 20
0
  9
$EXTMAX
 10
594
 20
420
  9
$LIMMIN
 10
0
 20
0
  9
$LIMMAX
 10
594
 20
420
  9
$LTSCALE
 40
1
  0
ENDSEC
  0
SECTION
  2
TABLES
  0
TABLE
  2
LTYPE
 70
     9
  0
LTYPE
  2
CONTINUOUS
 70
    64
  3
実線
 72
    65
 73
     0
 40
0.0
  0
LTYPE
  2
DASHED1
 70
    64
  3
--  --  --  --  --  --  --  --  
 72
    65
 73
     2
 40
2.5
 49
1.25
 49
-1.25
  0
LTYPE
  2
DASHED2
 70
    64
  3
----    ----    ----    ----    
 72
    65
 73
     2
 40
5.0
 49
2.5
 49
-2.5
  0
LTYPE
  2
DASHED3
 70
    64
  3
------  ------  ------  ------  
 72
    65
 73
     2
 40
5.0
 49
3.75
 49
-1.25
  0
LTYPE
  2
CENTER1
 70
    64
  3
----- - ----- - ----- - ----- - 
 72
    65
 73
     4
 40
10.0
 49
6.25
 49
-1.25
 49
1.25
 49
-1.25
  0
LTYPE
  2
CENTER2
 70
    64
  3
----------  --  ----------  --  
 72
    65
 73
     4
 40
20.0
 49
12.5
 49
-2.5
 49
2.5
 49
-2.5
  0
LTYPE
  2
PHANTOM1
 70
    64
  3
--- - - --- - - --- - - --- - - 
 72
    65
 73
     6
 40
10.0
 49
3.25
 49
-1.25
 49
1.25
 49
-1.25
 49
1.25
 49
-1.25
  0
LTYPE
  2
PHANTOM2
 70
    64
  3
--------  -  -  --------  -  -  
 72
    65
 73
     6
 40
20.0
 49
10.0
 49
-2.5
 49
1.25
 49
-2.5
 49
1.25
 49
-2.5
  0
LTYPE
  2
DOT
 70
    64
  3
-   -   -   -   -   -   -   -   
 72
    65
 73
     2
 40
2.5
 49
0.625
 49
-1.875
  0
LTYPE
  2
DUMMY
 70
    64
  3
ダミー
 72
    65
 73
     0
 40
0.0
  0
LTYPE
  2
RAND1
 70
    64
  3
ランダム線1
 72
    65
 73
     4
 40
10.0
 49
1.0
 49
-2.0
 49
3.0
 49
-4.0
  0
LTYPE
  2
RAND2
 70
    64
  3
ランダム線2
 72
    65
 73
     4
 40
14.0
 49
2.0
 49
-3.0
 49
4.0
 49
-5.0
  0
LTYPE
  2
RAND3
 70
    64
  3
ランダム線3
 72
    65
 73
     4
 40
18.0
 49
3.0
 49
-4.0
 49
5.0
 49
-6.0
  0
LTYPE
  2
RAND4
 70
    64
  3
ランダム線4
 72
    65
 73
     4
 40
22.0
 49
4.0
 49
-5.0
 49
6.0
 49
-7.0
  0
LTYPE
  2
RAND5
 70
    64
  3
ランダム線5
 72
    65
 73
     4
 40
26.0
 49
5.0
 49
-6.0
 49
7.0
 49
-8.0
  0
LTYPE
  2
LONG1
 70
    64
  3
----------  --  ----------  --  
 72
    65
 73
     4
 40
40.0
 49
32.5
 49
-2.5
 49
2.5
 49
-2.5
  0
LTYPE
  2
LONG2
 70
    64
  3
--------  -  -  --------  -  -  
 72
    65
 73
     6
 40
40.0
 49
30.0
 49
-2.5
 49
1.25
 49
-2.5
 49
1.25
 49
-2.5
  0
LTYPE
  2
LONG3
 70
    64
  3
+++++++++++++++..+++++++++++++++
 72
    65
 73
     2
 40
40.0
 49
37.5
 49
-2.5
  0
LTYPE
  2
LONG4
 70
    64
  3
+++++++++++++++..+++++++++++++++
 72
    65
 73
     2
 40
80.0
 49
75.0
 49
-5.0
  0
LTYPE
  2
LONG5
 70
    64
  3
----------  --  ----------  --  
 72
    65
 73
     4
 40
60.0
 49
37.5
 49
-7.5
 49
7.5
 49
-7.5
  0
LTYPE
  2
dashed
 70
   64
  3
-------   -------------   ------
 72
   65
 73
    2
 40
7.5
 49
6
 49
-1.5
  0
LTYPE
  2
dashed_spaced
 70
   64
  3
----        --------        ----
 72
   65
 73
    2
 40
12
 49
6
 49
-6
  0
LTYPE
  2
long_dashed_dotted
 70
   64
  3
------------- --- --------------
 72
   65
 73
    4
 40
15.25
 49
12
 49
-1.5
 49
0.25
 49
-1.5
  0
LTYPE
  2
long_dashed_double-dotted
 70
   64
  3
----------- --- --- ------------
 72
   65
 73
    6
 40
17
 49
12
 49
-1.5
 49
0.25
 49
-1.5
 49
0.25
 49
-1.5
  0
LTYPE
  2
long_dashed_triplicate-dotted
 70
   64
  3
--------- --- --- --- ----------
 72
   65
 73
    8
 40
18.75
 49
12
 49
-1.5
 49
0.25
 49
-1.5
 49
0.25
 49
-1.5
 49
0.25
 49
-1.5
  0
LTYPE
  2
dotted
 70
   64
  3
   -       -       -       -    
 72
   65
 73
    2
 40
1.75
 49
0.25
 49
-1.5
  0
LTYPE
  2
chain
 70
   64
  3
-------------- -- --------------
 72
   65
 73
    4
 40
18.5
 49
12
 49
-1.5
 49
3.5
 49
-1.5
  0
LTYPE
  2
chain_double_dash
 70
   64
  3
------------ -- -- -------------
 72
   65
 73
    6
 40
23.5
 49
12
 49
-1.5
 49
3.5
 49
-1.5
 49
3.5
 49
-1.5
  0
LTYPE
  2
dashed_dotted
 70
   64
  3
-----------     -     ----------
 72
   65
 73
    4
 40
9.25
 49
6
 49
-1.5
 49
0.25
 49
-1.5
  0
LTYPE
  2
double-dashed_dotted
 70
   64
  3
------   -----------   -   -----
 72
   65
 73
    6
 40
16.75
 49
6
 49
-1.5
 49
6
 49
-1.5
 49
0.25
 49
-1.5
  0
LTYPE
  2
dashed_double-dotted
 70
   64
  3
---------    -    -    ---------
 72
   65
 73
    6
 40
11
 49
6
 49
-1.5
 49
0.25
 49
-1.5
 49
0.25
 49
-1.5
  0
LTYPE
  2
double-dashed_double-dotted
 70
   64
  3
-----   ---------   -   -   ----
 72
   65
 73
    8
 40
18.5
 49
6
 49
-1.5
 49
6
 49
-1.5
 49
0.25
 49
-1.5
 49
0.25
 49
-1.5
  0
LTYPE
  2
dashed_triplicate-dotted
 70
   64
  3
-------    -    -    -    ------
 72
   65
 73
    8
 40
12.75
 49
6
 49
-1.5
 49
0.25
 49
-1.5
 49
0.25
 49
-1.5
 49
0.25
 49
-1.5
  0
LTYPE
  2
double-dashed_triplicate-dotted
 70
   64
  3
-----  ---------  -  -  -  -----
 72
   65
 73
   10
 40
20.25
 49
6
 49
-1.5
 49
6
 49
-1.5
 49
0.25
 49
-1.5
 49
0.25
 49
-1.5
 49
0.25
 49
-1.5
  0
LTYPE
  2
undefined
 70
   64
  3
--------------------------------
 72
   65
 73
    0
 40
0
  0
LTYPE
  2
BORDER
 70
   64
  3
----     --------     -     ----
 72
   65
 73
    6
 40
1.76
 49
0.5
 49
-0.25
 49
0.5
 49
-0.25
 49
0.01
 49
-0.25
  0
LTYPE
  2
BORDER2
 70
   64
  3
----     --------     -     ----
 72
   65
 73
    6
 40
0.885
 49
0.25
 49
-0.125
 49
0.25
 49
-0.125
 49
0.01
 49
-0.125
  0
LTYPE
  2
BORDERX2
 70
   64
  3
----     --------     -     ----
 72
   65
 73
    6
 40
3.5099999999999998
 49
1
 49
-0.5
 49
1
 49
-0.5
 49
0.01
 49
-0.5
  0
LTYPE
  2
CENTER
 70
   64
  3
----------    ----    ----------
 72
   65
 73
    4
 40
2
 49
1.25
 49
-0.25
 49
0.25
 49
-0.25
  0
LTYPE
  2
CENTER2_21
 70
   64
  3
----------    ----    ----------
 72
   65
 73
    4
 40
1.125
 49
0.75
 49
-0.125
 49
0.125
 49
-0.125
  0
LTYPE
  2
CENTERX2
 70
   64
  3
----------    ----    ----------
 72
   65
 73
    4
 40
4
 49
2.5
 49
-0.5
 49
0.5
 49
-0.5
  0
LTYPE
  2
DASHDOT
 70
   64
  3
--------        -        -------
 72
   65
 73
    4
 40
1.01
 49
0.5
 49
-0.25
 49
0.01
 49
-0.25
  0
LTYPE
  2
DASHDOT2
 70
   64
  3
--------        -        -------
 72
   65
 73
    4
 40
0.51
 49
0.25
 49
-0.125
 49
0.01
 49
-0.125
  0
LTYPE
  2
DASHDOTX2
 70
   64
  3
--------        -        -------
 72
   65
 73
    4
 40
2.0099999999999998
 49
1
 49
-0.5
 49
0.01
 49
-0.5
  0
LTYPE
  2
DASHED
 70
   64
  3
------     -----------     -----
 72
   65
 73
    2
 40
0.75
 49
0.5
 49
-0.25
  0
LTYPE
  2
DASHED2_27
 70
   64
  3
------     -----------     -----
 72
   65
 73
    2
 40
0.375
 49
0.25
 49
-0.125
  0
LTYPE
  2
DASHEDX2
 70
   64
  3
------     -----------     -----
 72
   65
 73
    2
 40
1.5
 49
1
 49
-0.5
  0
LTYPE
  2
DIVIDE
 70
   64
  3
------      -      -      ------
 72
   65
 73
    6
 40
1.27
 49
0.5
 49
-0.25
 49
0.01
 49
-0.25
 49
0.01
 49
-0.25
  0
LTYPE
  2
DIVIDE2
 70
   64
  3
------      -      -      ------
 72
   65
 73
    6
 40
0.645
 49
0.25
 49
-0.125
 49
0.01
 49
-0.125
 49
0.01
 49
-0.125
  0
LTYPE
  2
DIVIDEX2
 70
   64
  3
------      -      -      ------
 72
   65
 73
    6
 40
2.5199999999999996
 49
1
 49
-0.5
 49
0.01
 49
-0.5
 49
0.01
 49
-0.5
  0
LTYPE
  2
DOT_32
 70
   64
  3
-               -               
 72
   65
 73
    2
 40
0.26
 49
0.01
 49
-0.25
  0
ENDTAB
  0
TABLE
  2
STYLE
  5
3
100
AcDbSymbolTable
 70
     1
  0
STYLE
  5
10
100
AcDbSymbolTableRecord
100
AcDbTextStyleTableRecord
  2
STANDARD
 70
     0
 40
0.0
 41
1.0
 50
0.0
 71
     0
 42
0.2
  3
txt
  4
bigfont.shx
  0
STYLE
  5
26
100
AcDbSymbolTableRecord
100
AcDbTextStyleTableRecord
  2
TATEGAKI
 70
    68
 40
0.0
 41
1.0
 50
0.0
 71
     0
 42
1.0
  3
txt
  4
bigfont.shx
  0
ENDTAB
  0
TABLE
  2
LAYER
 70
    2
  0
LAYER
  2
_0-0_0
 70
   64
 62
    7
  6
CONTINUOUS
  0
LAYER
  2
ADD_LINE
 70
   64
 62
    7
  6
CONTINUOUS
  0
ENDTAB
  0
ENDSEC
  0
SECTION
  2
BLOCKS
  0
ENDSEC
  0
SECTION
  2
ENTITIES
  0
ARC
  8
_0-0_0
  6
CONTINUOUS
 62
    7
 10
291.02890080753832
 20
209.53391098735324
 40
11.91405544314167
 50
7.4274478719795809
 51
19.752883277428769
  0
ARC
  8
_0-0_0
  6
CONTINUOUS
 62
    7
 10
307.65042763493102
 20
249.04814979127241
 40
3.3693761323485347
 50
195.45866336479571
 51
239.04533796832294
  0
ARC
  8
_0-0_0
  6
CONTINUOUS
 62
    7
 10
307.70948264907202
 20
246.26402209586831
 40
1.7952320308203689
 50
183.36481623166455
 51
250.16922993741031
  0
ARC
  8
_0-0_0
  6
CONTINUOUS
 62
    7
 10
308.78665397856548
 20
244.2979948810264
 40
1.7088287814136027
 50
170.66289101711547
 51
253.99566583498702
  0
ARC
  8
_0-0_0
  6
CONTINUOUS
 62
    7
 10
311.37601608689874
 20
242.81593719908324
 40
3.0647031804218412
 50
183.00259763960582
 51
232.55641236999503
  0
ARC
  8
_0-0_0
  6
CONTINUOUS
 62
    7
 10
314.5716875029284
 20
241.12964174417016
 40
5.1138118935553436
 50
188.39889787640891
 51
216.10241835754039
  0
ARC
  8
_0-0_0
  6
CONTINUOUS
 62
    7
 10
312.85065456207258
 20
237.9185547129523
 40
2.4188356039101531
 50
175.30761089801919
 51
224.93276012409979
  0
ARC
  8
_0-0_0
  6
CONTINUOUS
 62
    7
 10
312.96429670946918
 20
235.46379099725914
 40
1.9727050964131188
 50
157.76771243018914
 51
206.87277007173273
  0
ARC
  8
_0-0_0
  6
CONTINUOUS
 62
    7
 10
315.72906956609904
 20
233.96629891405428
 40
4.5648292814965652
 50
172.37364849853569
 51
198.14072838770323
  0
ARC
  8
_0-0_0
  6
CONTINUOUS
 62
    7
 10
312.16132545536038
 20
231.52599673681311
 40
1.2773386049667199
 50
127.08194694231769
 51
214.05383971977577
  0
ARC
  8
_0-0_0
  6
CONTINUOUS
 62
    7
 10
312.31782211705604
 20
229.8280326159354
 40
1.5624693399299781
 50
141.02930934070611
 51
202.672422298225
  0
ARC
  8
_0-0_0
  6
CONTINUOUS
 62
    7
 10
311.66608224910033
 20
225.0699343848446
 40
2.5047568901664481
 50
119.28620808028792
 51
196.91227788433403
  0
ARC
  8
_0-0_0
  6
CONTINUOUS
 62
    7
 10
312.56282489982141
 20
227.81966415975148
 40
2.1959707409743849
 50
140.1845856950859
 51
194.9121252877876
  0
ARC
  8
_0-0_0
  6
CONTINUOUS
 62
    7
 10
312.12738114862077
 20
220.03035735012145
 40
5.1720976058826196
 50
123.54063046144209
 51
171.67074007066219
  0
ARC
  8
_0-0_0
  6
CONTINUOUS
 62
    7
 10
309.3897705855934
 20
218.21439574370629
 40
3.4991878941776164
 50
132.85452913067701
 51
185.09718443161296
  0
ARC
  8
_0-0_0
  6
CONTINUOUS
 62
    7
 10
305.2701246281772
 20
250.55625088280431
 40
2.55768056872963
 50
199.91915938341134
 51
250.18097786277252
  0
ARC
  8
_0-0_0
  6
CONTINUOUS
 62
    7
 10
303.40510471610787
 20
251.95006861501406
 40
2.3285958419949431
 50
202.81367061025924
 51
256.59993500325072
  0
ARC
  8
_0-0_0
  6
CONTINUOUS
 62
    7
 10
301.21615618980741
 20
252.80487542906212
 40
1.758231732871655
 50
203.15873176712202
 51
271.38532746184529
  0
ARC
  8
_0-0_0
  6
CONTINUOUS
 62
    7
 10
287.55033560414131
 20
206.51227930664345
 40
14.223606851345203
 50
52.733710534165247
 51
69.994546255526785
  0
ARC
  8
_0-0_0
  6
CONTINUOUS
 62
    7
 10
296.01095543208021
 20
215.47982441717136
 40
2.3569655067180761
 50
27.747462766178913
 51
86.300670087543111
  0
ARC
  8
_0-0_0
  6
CONTINUOUS
 62
    7
 10
298.44338023697628
 20
212.48998016623955
 40
3.9465004809722224
 50
15.738241676867608
 51
59.080564782646427
  0
ARC
  8
_0-0_0
  6
CONTINUOUS
 62
    7
 10
297.31790536863991
 20
209.57200681329959
 40
7.0483583353704464
 50
63.424085273990769
 51
83.654682123836835
  0
ARC
  8
_0-0_0
  6
CONTINUOUS
 62
    7
 10
254.85036861703429
 20
215.66068488631231
 40
46.631430884727372
 50
3.0963265043532111
 51
34.574124157402593
  0
ARC
  8
_0-0_0
  6
CONTINUOUS
 62
    7
 10
277.66565890379616
 20
212.92804808619144
 40
15.07420708128501
 50
37.306895864377893
 51
51.522099862193151
  0
ARC
  8
_0-0_0
  6
CONTINUOUS
 62
    7
 10
286.11383675726211
 20
214.75650341152709
 40
8.1208571177593303
 50
39.095733080178768
 51
64.141982551982068
  0
LINE
  8
_0-0_0
  6
CONTINUOUS
 62
    7
 10
285.24235921640229
 20
226.13556691169833
 11
287.04501146416305
 21
224.7288504412611
  0
ARC
  8
_0-0_0
  6
CONTINUOUS
 62
    7
 10
261.35390398639129
 20
216.2583345061953
 40
25.8499084435417
 50
22.46376502803496
 51
32.415651177066707
  0
ARC
  8
_0-0_0
  6
CONTINUOUS
 62
    7
 10
272.94284681244335
 20
228.24176977885827
 40
10.40317806000742
 50
10.37553231040501
 51
27.703940800782693
  0
ARC
  8
_0-0_0
  6
CONTINUOUS
 62
    7
 10
275.0880586250114
 20
233.44006185790408
 40
7.074623479327208
 50
357.06838403349752
 51
14.813352100968052
  0
ARC
  8
_0-0_0
  6
CONTINUOUS
 62
    7
 10
211.98156798053014
 20
242.83637677800743
 40
70.356306935007765
 50
353.80893579928971
 51
357.58092142880486
  0
ARC
  8
_0-0_0
  6
CONTINUOUS
 62
    7
 10
270.70496647307709
 20
245.26555615080019
 40
12.76782302904393
 50
334.98569942793495
 51
349.00335130305075
  0
ARC
  8
_0-0_0
  6
CONTINUOUS
 62
    7
 10
275.51020630135508
 20
249.90242567139126
 40
9.2380798870611205
 50
333.12687710568218
 51
359.84982830881512
  0
ARC
  8
_0-0_0
  6
CONTINUOUS
 62
    7
 10
295.61582496257415
 20
242.13448667442344
 40
12.39701347951571
 50
163.15632187397449
 51
176.78347817388291
  0
ARC
  8
_0-0_0
  6
CONTINUOUS
 62
    7
 10
299.15744574753717
 20
253.95468509569832
 40
1.8936549142948551
 50
209.84470832301011
 51
283.50303927592449
  0
ARC
  8
_0-0_0
  6
CONTINUOUS
 62
    7
 10
297.79411528979108
 20
255.75440569508532
 40
2.7562956399277501
 50
217.31846523737522
 51
264.18666324649308
  0
ARC
  8
_0-0_0
  6
CONTINUOUS
 62
    7
 10
295.4424193835016
 20
256.92469669011552
 40
2.8457631640767569
 50
219.43616538953384
 51
273.21661046135506
  0
ARC
  8
_0-0_0
  6
CONTINUOUS
 62
    7
 10
325.24801317101765
 20
263.99579147111035
 40
38.762591738066199
 50
188.95042199151047
 51
214.35253755256124
  0
ARC
  8
_0-0_0
  6
CONTINUOUS
 62
    7
 10
-732.55721124619095
 20
75.327026695431414
 40
1048.203521175177
 50
4.6883232106598474
 51
7.8175967294382813
  0
ARC
  8
_0-0_0
  6
CONTINUOUS
 62
    7
 10
-856.68597659863053
 20
63.438976263556469
 40
1168.8898741808539
 50
4.7717780805075414
 51
7.2560468839909369
  0
ARC
  8
_0-0_0
  6
CONTINUOUS
 62
    7
 10
293.27886845924013
 20
257.25165306420513
 40
2.1349312940995202
 50
217.32141587908259
 51
269.07907310745048
  0
ARC
  8
_0-0_0
  6
CONTINUOUS
 62
    7
 10
291.73197626026422
 20
258.27648381816539
 40
2.3241548191881951
 50
216.9703304953745
 51
266.27697434007592
  0
ARC
  8
_0-0_0
  6
CONTINUOUS
 62
    7
 10
291.10928689168941
 20
260.87204889691225
 40
4.179673609440421
 50
201.61218569373705
 51
252.82558612827432
  0
ARC
  8
_0-0_0
  6
CONTINUOUS
 62
    7
 10
300.40880516326206
 20
253.72365894379709
 40
14.328766609299681
 50
156.95556195672711
 51
179.12261305893796
  0
ARC
  8
_0-0_0
  6
CONTINUOUS
 62
    7
 10
276.49420909533137
 20
254.83710418959049
 40
9.6291035170986721
 50
329.00327333770088
 51
354.67259955945326
  0
LINE
  8
_0-0_0
  6
CONTINUOUS
 62
    7
 10
286.42428098750133
 20
255.93183598088126
 11
286.11112865933546
 21
254.66698702514032
  0
LINE
  8
_0-0_0
  6
CONTINUOUS
 62
    7
 10
312.13908914269223
 20
161.00235428640644
 11
308.15247288245473
 21
160.67541271118625
  0
ENDSEC
  0
EOF
