  0
SECTION
  2
HEADER
  9
$ACADVER
  1
AC1009
  9
$INSBASE
 10
0
 20
0
 30
0
  9
$EXTMIN
 10
0
 20
0
  9
$EXTMAX
 10
420
 20
297
  9
$LIMMIN
 10
0
 20
0
  9
$LIMMAX
 10
420
 20
297
  9
$LTSCALE
 40
1
  0
ENDSEC
  0
SECTION
  2
TABLES
  0
TABLE
  2
LTYPE
 70
     9
  0
LTYPE
  2
CONTINUOUS
 70
    64
  3
実線
 72
    65
 73
     0
 40
0.0
  0
LTYPE
  2
DASHED1
 70
    64
  3
--  --  --  --  --  --  --  --  
 72
    65
 73
     2
 40
2.5
 49
1.25
 49
-1.25
  0
LTYPE
  2
DASHED2
 70
    64
  3
----    ----    ----    ----    
 72
    65
 73
     2
 40
5.0
 49
2.5
 49
-2.5
  0
LTYPE
  2
DASHED3
 70
    64
  3
------  ------  ------  ------  
 72
    65
 73
     2
 40
5.0
 49
3.75
 49
-1.25
  0
LTYPE
  2
CENTER1
 70
    64
  3
----- - ----- - ----- - ----- - 
 72
    65
 73
     4
 40
10.0
 49
6.25
 49
-1.25
 49
1.25
 49
-1.25
  0
LTYPE
  2
CENTER2
 70
    64
  3
----------  --  ----------  --  
 72
    65
 73
     4
 40
20.0
 49
12.5
 49
-2.5
 49
2.5
 49
-2.5
  0
LTYPE
  2
PHANTOM1
 70
    64
  3
--- - - --- - - --- - - --- - - 
 72
    65
 73
     6
 40
10.0
 49
3.25
 49
-1.25
 49
1.25
 49
-1.25
 49
1.25
 49
-1.25
  0
LTYPE
  2
PHANTOM2
 70
    64
  3
--------  -  -  --------  -  -  
 72
    65
 73
     6
 40
20.0
 49
10.0
 49
-2.5
 49
1.25
 49
-2.5
 49
1.25
 49
-2.5
  0
LTYPE
  2
DOT
 70
    64
  3
-   -   -   -   -   -   -   -   
 72
    65
 73
     2
 40
2.5
 49
0.625
 49
-1.875
  0
LTYPE
  2
DUMMY
 70
    64
  3
ダミー
 72
    65
 73
     0
 40
0.0
  0
LTYPE
  2
RAND1
 70
    64
  3
ランダム線1
 72
    65
 73
     4
 40
10.0
 49
1.0
 49
-2.0
 49
3.0
 49
-4.0
  0
LTYPE
  2
RAND2
 70
    64
  3
ランダム線2
 72
    65
 73
     4
 40
14.0
 49
2.0
 49
-3.0
 49
4.0
 49
-5.0
  0
LTYPE
  2
RAND3
 70
    64
  3
ランダム線3
 72
    65
 73
     4
 40
18.0
 49
3.0
 49
-4.0
 49
5.0
 49
-6.0
  0
LTYPE
  2
RAND4
 70
    64
  3
ランダム線4
 72
    65
 73
     4
 40
22.0
 49
4.0
 49
-5.0
 49
6.0
 49
-7.0
  0
LTYPE
  2
RAND5
 70
    64
  3
ランダム線5
 72
    65
 73
     4
 40
26.0
 49
5.0
 49
-6.0
 49
7.0
 49
-8.0
  0
LTYPE
  2
LONG1
 70
    64
  3
----------  --  ----------  --  
 72
    65
 73
     4
 40
40.0
 49
32.5
 49
-2.5
 49
2.5
 49
-2.5
  0
LTYPE
  2
LONG2
 70
    64
  3
--------  -  -  --------  -  -  
 72
    65
 73
     6
 40
40.0
 49
30.0
 49
-2.5
 49
1.25
 49
-2.5
 49
1.25
 49
-2.5
  0
LTYPE
  2
LONG3
 70
    64
  3
+++++++++++++++..+++++++++++++++
 72
    65
 73
     2
 40
40.0
 49
37.5
 49
-2.5
  0
LTYPE
  2
LONG4
 70
    64
  3
+++++++++++++++..+++++++++++++++
 72
    65
 73
     2
 40
80.0
 49
75.0
 49
-5.0
  0
LTYPE
  2
LONG5
 70
    64
  3
----------  --  ----------  --  
 72
    65
 73
     4
 40
60.0
 49
37.5
 49
-7.5
 49
7.5
 49
-7.5
  0
LTYPE
  2
dashed
 70
   64
  3
-------   -------------   ------
 72
   65
 73
    2
 40
7.5
 49
6
 49
-1.5
  0
LTYPE
  2
dashed_spaced
 70
   64
  3
----        --------        ----
 72
   65
 73
    2
 40
12
 49
6
 49
-6
  0
LTYPE
  2
long_dashed_dotted
 70
   64
  3
------------- --- --------------
 72
   65
 73
    4
 40
15.25
 49
12
 49
-1.5
 49
0.25
 49
-1.5
  0
LTYPE
  2
long_dashed_double-dotted
 70
   64
  3
----------- --- --- ------------
 72
   65
 73
    6
 40
17
 49
12
 49
-1.5
 49
0.25
 49
-1.5
 49
0.25
 49
-1.5
  0
LTYPE
  2
long_dashed_triplicate-dotted
 70
   64
  3
--------- --- --- --- ----------
 72
   65
 73
    8
 40
18.75
 49
12
 49
-1.5
 49
0.25
 49
-1.5
 49
0.25
 49
-1.5
 49
0.25
 49
-1.5
  0
LTYPE
  2
dotted
 70
   64
  3
   -       -       -       -    
 72
   65
 73
    2
 40
1.75
 49
0.25
 49
-1.5
  0
LTYPE
  2
chain
 70
   64
  3
-------------- -- --------------
 72
   65
 73
    4
 40
18.5
 49
12
 49
-1.5
 49
3.5
 49
-1.5
  0
LTYPE
  2
chain_double_dash
 70
   64
  3
------------ -- -- -------------
 72
   65
 73
    6
 40
23.5
 49
12
 49
-1.5
 49
3.5
 49
-1.5
 49
3.5
 49
-1.5
  0
LTYPE
  2
dashed_dotted
 70
   64
  3
-----------     -     ----------
 72
   65
 73
    4
 40
9.25
 49
6
 49
-1.5
 49
0.25
 49
-1.5
  0
LTYPE
  2
double-dashed_dotted
 70
   64
  3
------   -----------   -   -----
 72
   65
 73
    6
 40
16.75
 49
6
 49
-1.5
 49
6
 49
-1.5
 49
0.25
 49
-1.5
  0
LTYPE
  2
dashed_double-dotted
 70
   64
  3
---------    -    -    ---------
 72
   65
 73
    6
 40
11
 49
6
 49
-1.5
 49
0.25
 49
-1.5
 49
0.25
 49
-1.5
  0
LTYPE
  2
double-dashed_double-dotted
 70
   64
  3
-----   ---------   -   -   ----
 72
   65
 73
    8
 40
18.5
 49
6
 49
-1.5
 49
6
 49
-1.5
 49
0.25
 49
-1.5
 49
0.25
 49
-1.5
  0
LTYPE
  2
dashed_triplicate-dotted
 70
   64
  3
-------    -    -    -    ------
 72
   65
 73
    8
 40
12.75
 49
6
 49
-1.5
 49
0.25
 49
-1.5
 49
0.25
 49
-1.5
 49
0.25
 49
-1.5
  0
LTYPE
  2
double-dashed_triplicate-dotted
 70
   64
  3
-----  ---------  -  -  -  -----
 72
   65
 73
   10
 40
20.25
 49
6
 49
-1.5
 49
6
 49
-1.5
 49
0.25
 49
-1.5
 49
0.25
 49
-1.5
 49
0.25
 49
-1.5
  0
LTYPE
  2
undefined
 70
   64
  3
--------------------------------
 72
   65
 73
    0
 40
0
  0
ENDTAB
  0
TABLE
  2
STYLE
  5
3
100
AcDbSymbolTable
 70
     1
  0
STYLE
  5
10
100
AcDbSymbolTableRecord
100
AcDbTextStyleTableRecord
  2
STANDARD
 70
     0
 40
0.0
 41
1.0
 50
0.0
 71
     0
 42
0.2
  3
txt
  4
bigfont.shx
  0
STYLE
  5
26
100
AcDbSymbolTableRecord
100
AcDbTextStyleTableRecord
  2
TATEGAKI
 70
    68
 40
0.0
 41
1.0
 50
0.0
 71
     0
 42
1.0
  3
txt
  4
bigfont.shx
  0
ENDTAB
  0
TABLE
  2
LAYER
 70
    2
  0
LAYER
  2
_0-0_0
 70
   64
 62
    7
  6
CONTINUOUS
  0
LAYER
  2
ADD_LINE
 70
   64
 62
    7
  6
CONTINUOUS
  0
ENDTAB
  0
ENDSEC
  0
SECTION
  2
BLOCKS
  0
ENDSEC
  0
SECTION
  2
ENTITIES
  0
LINE
  8
_0-0_0
  6
CONTINUOUS
 62
    7
 10
218.13393350000001
 20
151.24992600000002
 11
218.13393350000001
 21
152.09393499999999
  0
LINE
  8
_0-0_0
  6
CONTINUOUS
 62
    7
 10
218.13393350000001
 20
152.09393499999999
 11
217.8080425
 21
153.331827
  0
LINE
  8
_0-0_0
  6
CONTINUOUS
 62
    7
 10
217.8080425
 20
153.331827
 11
217.61250649999999
 21
153.75384
  0
LINE
  8
_0-0_0
  6
CONTINUOUS
 62
    7
 10
217.61250649999999
 20
153.75384
 11
217.41697049999999
 21
154.26024799999999
  0
LINE
  8
_0-0_0
  6
CONTINUOUS
 62
    7
 10
217.41697049999999
 20
154.26024799999999
 11
217.09107750000001
 21
154.90732
  0
LINE
  8
_0-0_0
  6
CONTINUOUS
 62
    7
 10
217.09107750000001
 20
154.90732
 11
216.99331050000001
 21
154.991724
  0
LINE
  8
_0-0_0
  6
CONTINUOUS
 62
    7
 10
216.99331050000001
 20
154.991724
 11
216.56965049999999
 21
155.723207
  0
LINE
  8
_0-0_0
  6
CONTINUOUS
 62
    7
 10
216.56965049999999
 20
155.723207
 11
216.14599050000001
 21
156.34215
  0
LINE
  8
_0-0_0
  6
CONTINUOUS
 62
    7
 10
216.14599050000001
 20
156.34215
 11
215.7223295
 21
156.76415400000002
  0
LINE
  8
_0-0_0
  6
CONTINUOUS
 62
    7
 10
215.7223295
 20
156.76415400000002
 11
215.20090049999999
 21
157.49563799999999
  0
LINE
  8
_0-0_0
  6
CONTINUOUS
 62
    7
 10
215.20090049999999
 20
157.49563799999999
 11
214.6794735
 21
158.33965499999999
  0
LINE
  8
_0-0_0
  6
CONTINUOUS
 62
    7
 10
214.6794735
 20
158.33965499999999
 11
214.38616949999999
 21
158.53659199999998
  0
LINE
  8
_0-0_0
  6
CONTINUOUS
 62
    7
 10
214.38616949999999
 20
158.53659199999998
 11
213.96250850000001
 21
158.84606400000001
  0
LINE
  8
_0-0_0
  6
CONTINUOUS
 62
    7
 10
213.96250850000001
 20
158.84606400000001
 11
213.4410815
 21
159.268068
  0
LINE
  8
_0-0_0
  6
CONTINUOUS
 62
    7
 10
213.4410815
 20
159.268068
 11
213.14777749999999
 21
158.84606400000001
  0
LINE
  8
_0-0_0
  6
CONTINUOUS
 62
    7
 10
213.14777749999999
 20
158.84606400000001
 11
212.4959925
 21
159.38060899999999
  0
LINE
  8
_0-0_0
  6
CONTINUOUS
 62
    7
 10
212.4959925
 20
159.38060899999999
 11
212.3982235
 21
158.649126
  0
LINE
  8
_0-0_0
  6
CONTINUOUS
 62
    7
 10
212.3982235
 20
158.649126
 11
211.1598315
 21
159.99955199999999
  0
LINE
  8
_0-0_0
  6
CONTINUOUS
 62
    7
 10
211.1598315
 20
159.99955199999999
 11
211.1598315
 21
159.15553499999999
  0
LINE
  8
_0-0_0
  6
CONTINUOUS
 62
    7
 10
211.1598315
 20
159.15553499999999
 11
210.21474449999999
 21
159.88701800000001
  0
LINE
  8
_0-0_0
  6
CONTINUOUS
 62
    7
 10
210.21474449999999
 20
159.88701800000001
 11
210.11697750000002
 21
159.46500600000002
  0
LINE
  8
_0-0_0
  6
CONTINUOUS
 62
    7
 10
210.11697750000002
 20
159.46500600000002
 11
208.87858549999999
 21
160.50596000000002
  0
LINE
  8
_0-0_0
  6
CONTINUOUS
 62
    7
 10
208.87858549999999
 20
160.50596000000002
 11
208.55269250000001
 21
160.19648899999999
  0
LINE
  8
_0-0_0
  6
CONTINUOUS
 62
    7
 10
208.55269250000001
 20
160.19648899999999
 11
207.60760149999999
 21
160.843569
  0
LINE
  8
_0-0_0
  6
CONTINUOUS
 62
    7
 10
207.60760149999999
 20
160.843569
 11
207.5098385
 21
160.42155600000001
  0
LINE
  8
_0-0_0
  6
CONTINUOUS
 62
    7
 10
207.5098385
 20
160.42155600000001
 11
205.52189250000001
 21
161.77198199999998
  0
LINE
  8
_0-0_0
  6
CONTINUOUS
 62
    7
 10
205.52189250000001
 20
161.77198199999998
 11
205.2285885
 21
161.46251100000001
  0
LINE
  8
_0-0_0
  6
CONTINUOUS
 62
    7
 10
205.2285885
 20
161.46251100000001
 11
204.60939050000002
 21
162.08145300000001
  0
LINE
  8
_0-0_0
  6
CONTINUOUS
 62
    7
 10
204.60939050000002
 20
162.08145300000001
 11
204.18572950000001
 21
161.659449
  0
LINE
  8
_0-0_0
  6
CONTINUOUS
 62
    7
 10
204.18572950000001
 20
161.659449
 11
202.81698249999999
 21
162.61599899999999
  0
LINE
  8
_0-0_0
  6
CONTINUOUS
 62
    7
 10
202.81698249999999
 20
162.61599899999999
 11
201.67635749999999
 21
162.278391
  0
LINE
  8
_0-0_0
  6
CONTINUOUS
 62
    7
 10
201.67635749999999
 20
162.278391
 11
200.7312695
 21
162.81293700000001
  0
LINE
  8
_0-0_0
  6
CONTINUOUS
 62
    7
 10
200.7312695
 20
162.81293700000001
 11
199.39511149999998
 21
163.009874
  0
LINE
  8
_0-0_0
  6
CONTINUOUS
 62
    7
 10
199.39511149999998
 20
163.009874
 11
198.87368050000001
 21
163.65695399999998
  0
LINE
  8
_0-0_0
  6
CONTINUOUS
 62
    7
 10
198.87368050000001
 20
163.65695399999998
 11
198.15671950000001
 21
163.23494099999999
  0
LINE
  8
_0-0_0
  6
CONTINUOUS
 62
    7
 10
198.15671950000001
 20
163.23494099999999
 11
197.11386149999998
 21
163.853891
  0
LINE
  8
_0-0_0
  6
CONTINUOUS
 62
    7
 10
197.11386149999998
 20
163.853891
 11
196.78796750000001
 21
163.12240800000001
  0
LINE
  8
_0-0_0
  6
CONTINUOUS
 62
    7
 10
196.78796750000001
 20
163.12240800000001
 11
196.16877349999999
 21
164.27589599999999
  0
LINE
  8
_0-0_0
  6
CONTINUOUS
 62
    7
 10
196.16877349999999
 20
164.27589599999999
 11
195.12591550000002
 21
163.54441199999999
  0
LINE
  8
_0-0_0
  6
CONTINUOUS
 62
    7
 10
195.12591550000002
 20
163.54441199999999
 11
194.18082850000002
 21
164.3603
  0
LINE
  8
_0-0_0
  6
CONTINUOUS
 62
    7
 10
194.18082850000002
 20
164.3603
 11
194.08306149999999
 21
163.853891
  0
LINE
  8
_0-0_0
  6
CONTINUOUS
 62
    7
 10
194.08306149999999
 20
163.853891
 11
192.7143135
 21
164.697901
  0
LINE
  8
_0-0_0
  6
CONTINUOUS
 62
    7
 10
192.7143135
 20
164.697901
 11
192.7143135
 21
164.05082099999998
  0
LINE
  8
_0-0_0
  6
CONTINUOUS
 62
    7
 10
192.7143135
 20
164.05082099999998
 11
191.3781515
 21
164.78230500000001
  0
LINE
  8
_0-0_0
  6
CONTINUOUS
 62
    7
 10
191.3781515
 20
164.78230500000001
 11
191.0522575
 21
164.3603
  0
LINE
  8
_0-0_0
  6
CONTINUOUS
 62
    7
 10
191.0522575
 20
164.3603
 11
189.81386549999999
 21
164.697901
  0
LINE
  8
_0-0_0
  6
CONTINUOUS
 62
    7
 10
189.81386549999999
 20
164.697901
 11
189.61833250000001
 21
164.05082099999998
  0
LINE
  8
_0-0_0
  6
CONTINUOUS
 62
    7
 10
189.61833250000001
 20
164.05082099999998
 11
188.2495845
 21
164.78230500000001
  0
LINE
  8
_0-0_0
  6
CONTINUOUS
 62
    7
 10
188.2495845
 20
164.78230500000001
 11
188.2495845
 21
164.27589599999999
  0
LINE
  8
_0-0_0
  6
CONTINUOUS
 62
    7
 10
188.2495845
 20
164.27589599999999
 11
186.78306650000002
 21
164.58536700000002
  0
LINE
  8
_0-0_0
  6
CONTINUOUS
 62
    7
 10
186.78306650000002
 20
164.58536700000002
 11
187.01119249999999
 21
164.05082099999998
  0
LINE
  8
_0-0_0
  6
CONTINUOUS
 62
    7
 10
187.01119249999999
 20
164.05082099999998
 11
185.21878050000001
 21
164.27589599999999
  0
LINE
  8
_0-0_0
  6
CONTINUOUS
 62
    7
 10
185.21878050000001
 20
164.27589599999999
 11
185.3491405
 21
163.74135000000001
  0
LINE
  8
_0-0_0
  6
CONTINUOUS
 62
    7
 10
185.3491405
 20
163.74135000000001
 11
183.78485549999999
 21
163.96642500000002
  0
LINE
  8
_0-0_0
  6
CONTINUOUS
 62
    7
 10
183.78485549999999
 20
163.96642500000002
 11
184.0781595
 21
163.12240800000001
  0
LINE
  8
_0-0_0
  6
CONTINUOUS
 62
    7
 10
184.0781595
 20
163.12240800000001
 11
182.9375345
 21
163.12240800000001
  0
LINE
  8
_0-0_0
  6
CONTINUOUS
 62
    7
 10
182.9375345
 20
163.12240800000001
 11
182.9375345
 21
162.503466
  0
LINE
  8
_0-0_0
  6
CONTINUOUS
 62
    7
 10
182.9375345
 20
162.503466
 11
181.27548250000001
 21
163.009874
  0
LINE
  8
_0-0_0
  6
CONTINUOUS
 62
    7
 10
181.27548250000001
 20
163.009874
 11
181.37324949999999
 21
162.61599899999999
  0
LINE
  8
_0-0_0
  6
CONTINUOUS
 62
    7
 10
181.37324949999999
 20
162.61599899999999
 11
180.13485750000001
 21
162.70040299999999
  0
LINE
  8
_0-0_0
  6
CONTINUOUS
 62
    7
 10
180.13485750000001
 20
162.70040299999999
 11
180.33039550000001
 21
161.96892
  0
LINE
  8
_0-0_0
  6
CONTINUOUS
 62
    7
 10
180.33039550000001
 20
161.96892
 11
178.47280549999999
 21
161.96892
  0
LINE
  8
_0-0_0
  6
CONTINUOUS
 62
    7
 10
178.47280549999999
 20
161.96892
 11
178.47280549999999
 21
161.57504499999999
  0
LINE
  8
_0-0_0
  6
CONTINUOUS
 62
    7
 10
178.47280549999999
 20
161.57504499999999
 11
177.00629050000001
 21
161.77198199999998
  0
LINE
  8
_0-0_0
  6
CONTINUOUS
 62
    7
 10
177.00629050000001
 20
161.77198199999998
 11
177.10405349999999
 21
161.04050599999999
  0
LINE
  8
_0-0_0
  6
CONTINUOUS
 62
    7
 10
177.10405349999999
 20
161.04050599999999
 11
175.76789550000001
 21
161.04050599999999
  0
LINE
  8
_0-0_0
  6
CONTINUOUS
 62
    7
 10
175.76789550000001
 20
161.04050599999999
 11
175.86566550000001
 21
160.50596000000002
  0
LINE
  8
_0-0_0
  6
CONTINUOUS
 62
    7
 10
175.86566550000001
 20
160.50596000000002
 11
174.92057450000001
 21
160.50596000000002
  0
LINE
  8
_0-0_0
  6
CONTINUOUS
 62
    7
 10
174.92057450000001
 20
160.50596000000002
 11
175.1161085
 21
160.11208500000001
  0
LINE
  8
_0-0_0
  6
CONTINUOUS
 62
    7
 10
175.1161085
 20
160.11208500000001
 11
173.4540605
 21
159.99955199999999
  0
LINE
  8
_0-0_0
  6
CONTINUOUS
 62
    7
 10
173.4540605
 20
159.99955199999999
 11
173.58441550000001
 21
159.46500600000002
  0
LINE
  8
_0-0_0
  6
CONTINUOUS
 62
    7
 10
173.58441550000001
 20
159.46500600000002
 11
172.73709550000001
 21
159.15553499999999
  0
LINE
  8
_0-0_0
  6
CONTINUOUS
 62
    7
 10
172.73709550000001
 20
159.15553499999999
 11
172.73709550000001
 21
158.53659199999998
  0
LINE
  8
_0-0_0
  6
CONTINUOUS
 62
    7
 10
172.73709550000001
 20
158.53659199999998
 11
171.36834350000001
 21
158.42405100000002
  0
LINE
  8
_0-0_0
  6
CONTINUOUS
 62
    7
 10
171.36834350000001
 20
158.42405100000002
 11
171.1728105
 21
157.72071299999999
  0
LINE
  8
_0-0_0
  6
CONTINUOUS
 62
    7
 10
171.1728105
 20
157.72071299999999
 11
169.4129915
 21
157.608171
  0
LINE
  8
_0-0_0
  6
CONTINUOUS
 62
    7
 10
169.4129915
 20
157.608171
 11
169.4129915
 21
157.18616700000001
  0
LINE
  8
_0-0_0
  6
CONTINUOUS
 62
    7
 10
169.4129915
 20
157.18616700000001
 11
167.94647649999999
 21
157.18616700000001
  0
LINE
  8
_0-0_0
  6
CONTINUOUS
 62
    7
 10
167.94647649999999
 20
157.18616700000001
 11
167.94647649999999
 21
156.76415400000002
  0
LINE
  8
_0-0_0
  6
CONTINUOUS
 62
    7
 10
167.94647649999999
 20
156.76415400000002
 11
166.3821915
 21
156.56722400000001
  0
LINE
  8
_0-0_0
  6
CONTINUOUS
 62
    7
 10
166.3821915
 20
156.56722400000001
 11
166.3821915
 21
155.948275
  0
LINE
  8
_0-0_0
  6
CONTINUOUS
 62
    7
 10
166.3821915
 20
155.948275
 11
165.14379550000001
 21
155.83574099999998
  0
LINE
  8
_0-0_0
  6
CONTINUOUS
 62
    7
 10
165.14379550000001
 20
155.83574099999998
 11
165.14379550000001
 21
155.10425800000002
  0
LINE
  8
_0-0_0
  6
CONTINUOUS
 62
    7
 10
165.14379550000001
 20
155.10425800000002
 11
163.8728145
 21
154.90732
  0
LINE
  8
_0-0_0
  6
CONTINUOUS
 62
    7
 10
163.8728145
 20
154.90732
 11
163.77504450000001
 21
154.48531500000001
  0
LINE
  8
_0-0_0
  6
CONTINUOUS
 62
    7
 10
163.77504450000001
 20
154.48531500000001
 11
162.63441950000001
 21
154.372782
  0
LINE
  8
_0-0_0
  6
CONTINUOUS
 62
    7
 10
162.63441950000001
 20
154.372782
 11
162.9603165
 21
153.75384
  0
LINE
  8
_0-0_0
  6
CONTINUOUS
 62
    7
 10
162.9603165
 20
153.75384
 11
162.0152325
 21
153.55690200000001
  0
LINE
  8
_0-0_0
  6
CONTINUOUS
 62
    7
 10
162.0152325
 20
153.55690200000001
 11
161.9174625
 21
152.712885
  0
LINE
  8
_0-0_0
  6
CONTINUOUS
 62
    7
 10
161.9174625
 20
152.712885
 11
160.35317649999999
 21
152.712885
  0
LINE
  8
_0-0_0
  6
CONTINUOUS
 62
    7
 10
160.35317649999999
 20
152.712885
 11
159.92951650000001
 21
151.78446400000001
  0
LINE
  8
_0-0_0
  6
CONTINUOUS
 62
    7
 10
159.92951650000001
 20
151.78446400000001
 11
158.69112050000001
 21
151.137384
  0
LINE
  8
_0-0_0
  6
CONTINUOUS
 62
    7
 10
158.69112050000001
 20
151.137384
 11
159.08219550000001
 21
150.321505
  0
LINE
  8
_0-0_0
  6
CONTINUOUS
 62
    7
 10
159.08219550000001
 20
150.321505
 11
157.84380050000001
 21
150.09643800000001
  0
LINE
  8
_0-0_0
  6
CONTINUOUS
 62
    7
 10
157.84380050000001
 20
150.09643800000001
 11
158.2674605
 21
149.47748799999999
  0
LINE
  8
_0-0_0
  6
CONTINUOUS
 62
    7
 10
158.2674605
 20
149.47748799999999
 11
157.1268355
 21
148.971079
  0
LINE
  8
_0-0_0
  6
CONTINUOUS
 62
    7
 10
157.1268355
 20
148.971079
 11
158.07192649999999
 21
148.54907400000002
  0
LINE
  8
_0-0_0
  6
CONTINUOUS
 62
    7
 10
158.07192649999999
 20
148.54907400000002
 11
156.70317550000001
 21
147.70505700000001
  0
LINE
  8
_0-0_0
  6
CONTINUOUS
 62
    7
 10
156.70317550000001
 20
147.70505700000001
 11
157.22460649999999
 21
147.311182
  0
LINE
  8
_0-0_0
  6
CONTINUOUS
 62
    7
 10
157.22460649999999
 20
147.311182
 11
155.66032849999999
 21
146.66410300000001
  0
LINE
  8
_0-0_0
  6
CONTINUOUS
 62
    7
 10
155.66032849999999
 20
146.66410300000001
 11
156.6054125
 21
146.04516000000001
  0
LINE
  8
_0-0_0
  6
CONTINUOUS
 62
    7
 10
156.6054125
 20
146.04516000000001
 11
155.56255050000001
 21
145.42621400000002
  0
LINE
  8
_0-0_0
  6
CONTINUOUS
 62
    7
 10
155.56255050000001
 20
145.42621400000002
 11
156.0839885
 21
145.42621400000002
  0
LINE
  8
_0-0_0
  6
CONTINUOUS
 62
    7
 10
156.0839885
 20
145.42621400000002
 11
154.3241625
 21
144.07579200000001
  0
LINE
  8
_0-0_0
  6
CONTINUOUS
 62
    7
 10
154.3241625
 20
144.07579200000001
 11
155.85585449999999
 21
144.07579200000001
  0
LINE
  8
_0-0_0
  6
CONTINUOUS
 62
    7
 10
155.85585449999999
 20
144.07579200000001
 11
154.51970349999999
 21
142.922304
  0
LINE
  8
_0-0_0
  6
CONTINUOUS
 62
    7
 10
154.51970349999999
 20
142.922304
 11
155.04112649999999
 21
142.415896
  0
LINE
  8
_0-0_0
  6
CONTINUOUS
 62
    7
 10
155.04112649999999
 20
142.415896
 11
154.3241625
 21
141.571879
  0
LINE
  8
_0-0_0
  6
CONTINUOUS
 62
    7
 10
154.3241625
 20
141.571879
 11
154.09604350000001
 21
140.10891900000001
  0
LINE
  8
_0-0_0
  6
CONTINUOUS
 62
    7
 10
154.09604350000001
 20
140.10891900000001
 11
153.37907849999999
 21
139.48997299999999
  0
LINE
  8
_0-0_0
  6
CONTINUOUS
 62
    7
 10
153.37907849999999
 20
139.48997299999999
 11
153.6723835
 21
138.871027
  0
LINE
  8
_0-0_0
  6
CONTINUOUS
 62
    7
 10
153.6723835
 20
138.871027
 11
152.85764750000001
 21
137.40806800000001
  0
LINE
  8
_0-0_0
  6
CONTINUOUS
 62
    7
 10
152.85764750000001
 20
137.40806800000001
 11
153.57460449999999
 21
136.873526
  0
LINE
  8
_0-0_0
  6
CONTINUOUS
 62
    7
 10
153.57460449999999
 20
136.873526
 11
152.75987649999999
 21
136.25458
  0
LINE
  8
_0-0_0
  6
CONTINUOUS
 62
    7
 10
152.75987649999999
 20
136.25458
 11
155.33443149999999
 21
136.98605900000001
  0
LINE
  8
_0-0_0
  6
CONTINUOUS
 62
    7
 10
155.33443149999999
 20
136.98605900000001
 11
155.23666850000001
 21
136.36711700000001
  0
LINE
  8
_0-0_0
  6
CONTINUOUS
 62
    7
 10
155.23666850000001
 20
136.36711700000001
 11
155.04112649999999
 21
135.5231
  0
LINE
  8
_0-0_0
  6
CONTINUOUS
 62
    7
 10
155.04112649999999
 20
135.5231
 11
157.4201395
 21
136.67658800000001
  0
LINE
  8
_0-0_0
  6
CONTINUOUS
 62
    7
 10
157.4201395
 20
136.67658800000001
 11
156.6054125
 21
135.635638
  0
LINE
  8
_0-0_0
  6
CONTINUOUS
 62
    7
 10
156.6054125
 20
135.635638
 11
159.60362649999999
 21
136.17018000000002
  0
LINE
  8
_0-0_0
  6
CONTINUOUS
 62
    7
 10
159.60362649999999
 20
136.17018000000002
 11
159.31032250000001
 21
135.5231
  0
LINE
  8
_0-0_0
  6
CONTINUOUS
 62
    7
 10
159.31032250000001
 20
135.5231
 11
161.6893355
 21
135.83257499999999
  0
LINE
  8
_0-0_0
  6
CONTINUOUS
 62
    7
 10
161.6893355
 20
135.83257499999999
 11
161.39603149999999
 21
135.01669200000001
  0
LINE
  8
_0-0_0
  6
CONTINUOUS
 62
    7
 10
161.39603149999999
 20
135.01669200000001
 11
163.8728145
 21
135.74817100000001
  0
LINE
  8
_0-0_0
  6
CONTINUOUS
 62
    7
 10
163.8728145
 20
135.74817100000001
 11
163.15585050000001
 21
134.79162099999999
  0
LINE
  8
_0-0_0
  6
CONTINUOUS
 62
    7
 10
163.15585050000001
 20
134.79162099999999
 11
165.0460325
 21
135.32616300000001
  0
LINE
  8
_0-0_0
  6
CONTINUOUS
 62
    7
 10
165.0460325
 20
135.32616300000001
 11
164.7201355
 21
134.594683
  0
LINE
  8
_0-0_0
  6
CONTINUOUS
 62
    7
 10
164.7201355
 20
134.594683
 11
167.0013855
 21
134.90415400000001
  0
LINE
  8
_0-0_0
  6
CONTINUOUS
 62
    7
 10
167.0013855
 20
134.90415400000001
 11
166.3821915
 21
134.08827400000001
  0
LINE
  8
_0-0_0
  6
CONTINUOUS
 62
    7
 10
166.3821915
 20
134.08827400000001
 11
168.8915605
 21
134.48214899999999
  0
LINE
  8
_0-0_0
  6
CONTINUOUS
 62
    7
 10
168.8915605
 20
134.48214899999999
 11
168.56567050000001
 21
133.863203
  0
LINE
  8
_0-0_0
  6
CONTINUOUS
 62
    7
 10
168.56567050000001
 20
133.863203
 11
171.49870749999999
 21
134.285212
  0
LINE
  8
_0-0_0
  6
CONTINUOUS
 62
    7
 10
171.49870749999999
 20
134.285212
 11
170.84692050000001
 21
133.44119499999999
  0
LINE
  8
_0-0_0
  6
CONTINUOUS
 62
    7
 10
170.84692050000001
 20
133.44119499999999
 11
173.06299250000001
 21
133.975741
  0
LINE
  8
_0-0_0
  6
CONTINUOUS
 62
    7
 10
173.06299250000001
 20
133.975741
 11
173.06299250000001
 21
133.244257
  0
LINE
  8
_0-0_0
  6
CONTINUOUS
 62
    7
 10
173.06299250000001
 20
133.244257
 11
175.1161085
 21
133.44119499999999
  0
LINE
  8
_0-0_0
  6
CONTINUOUS
 62
    7
 10
175.1161085
 20
133.44119499999999
 11
174.82280349999999
 21
132.934786
  0
LINE
  8
_0-0_0
  6
CONTINUOUS
 62
    7
 10
174.82280349999999
 20
132.934786
 11
178.14691550000001
 21
133.55372800000001
  0
LINE
  8
_0-0_0
  6
CONTINUOUS
 62
    7
 10
178.14691550000001
 20
133.55372800000001
 11
178.14691550000001
 21
132.70971500000002
  0
LINE
  8
_0-0_0
  6
CONTINUOUS
 62
    7
 10
178.14691550000001
 20
132.70971500000002
 11
181.27548250000001
 21
133.66626600000001
  0
LINE
  8
_0-0_0
  6
CONTINUOUS
 62
    7
 10
181.27548250000001
 20
133.66626600000001
 11
181.17771550000001
 21
132.625315
  0
LINE
  8
_0-0_0
  6
CONTINUOUS
 62
    7
 10
181.17771550000001
 20
132.625315
 11
184.30628250000001
 21
133.55372800000001
  0
LINE
  8
_0-0_0
  6
CONTINUOUS
 62
    7
 10
184.30628250000001
 20
133.55372800000001
 11
183.78485549999999
 21
132.51278100000002
  0
LINE
  8
_0-0_0
  6
CONTINUOUS
 62
    7
 10
183.78485549999999
 20
132.51278100000002
 11
185.64244150000002
 21
133.244257
  0
LINE
  8
_0-0_0
  6
CONTINUOUS
 62
    7
 10
185.64244150000002
 20
133.244257
 11
185.64244150000002
 21
132.315844
  0
LINE
  8
_0-0_0
  6
CONTINUOUS
 62
    7
 10
185.64244150000002
 20
132.315844
 11
187.82592449999999
 21
133.66626600000001
  0
LINE
  8
_0-0_0
  6
CONTINUOUS
 62
    7
 10
187.82592449999999
 20
133.66626600000001
 11
187.63038649999999
 21
132.70971500000002
  0
LINE
  8
_0-0_0
  6
CONTINUOUS
 62
    7
 10
187.63038649999999
 20
132.70971500000002
 11
190.4330635
 21
133.44119499999999
  0
LINE
  8
_0-0_0
  6
CONTINUOUS
 62
    7
 10
190.4330635
 20
133.44119499999999
 11
190.3352965
 21
132.40024399999999
  0
LINE
  8
_0-0_0
  6
CONTINUOUS
 62
    7
 10
190.3352965
 20
132.40024399999999
 11
194.08306149999999
 21
133.750666
  0
LINE
  8
_0-0_0
  6
CONTINUOUS
 62
    7
 10
194.08306149999999
 20
133.750666
 11
193.5616345
 21
132.51278100000002
  0
LINE
  8
_0-0_0
  6
CONTINUOUS
 62
    7
 10
193.5616345
 20
132.51278100000002
 11
196.07100650000001
 21
133.750666
  0
LINE
  8
_0-0_0
  6
CONTINUOUS
 62
    7
 10
196.07100650000001
 20
133.750666
 11
195.7451135
 21
132.625315
  0
LINE
  8
_0-0_0
  6
CONTINUOUS
 62
    7
 10
195.7451135
 20
132.625315
 11
198.02635950000001
 21
134.08827400000001
  0
LINE
  8
_0-0_0
  6
CONTINUOUS
 62
    7
 10
198.02635950000001
 20
134.08827400000001
 11
198.87368050000001
 21
133.04732000000001
  0
LINE
  8
_0-0_0
  6
CONTINUOUS
 62
    7
 10
198.87368050000001
 20
133.04732000000001
 11
200.11207250000001
 21
133.975741
  0
LINE
  8
_0-0_0
  6
CONTINUOUS
 62
    7
 10
200.11207250000001
 20
133.975741
 11
199.9165385
 21
132.51278100000002
  0
LINE
  8
_0-0_0
  6
CONTINUOUS
 62
    7
 10
199.9165385
 20
132.51278100000002
 11
201.77412749999999
 21
133.863203
  0
LINE
  8
_0-0_0
  6
CONTINUOUS
 62
    7
 10
201.77412749999999
 20
133.863203
 11
202.52367750000002
 21
132.70971500000002
  0
LINE
  8
_0-0_0
  6
CONTINUOUS
 62
    7
 10
202.52367750000002
 20
132.70971500000002
 11
204.18572950000001
 21
133.975741
  0
LINE
  8
_0-0_0
  6
CONTINUOUS
 62
    7
 10
204.18572950000001
 20
133.975741
 11
204.38126750000001
 21
133.04732000000001
  0
LINE
  8
_0-0_0
  6
CONTINUOUS
 62
    7
 10
204.38126750000001
 20
133.04732000000001
 11
205.94555250000002
 21
134.285212
  0
LINE
  8
_0-0_0
  6
CONTINUOUS
 62
    7
 10
205.94555250000002
 20
134.285212
 11
206.1736755
 21
133.44119499999999
  0
LINE
  8
_0-0_0
  6
CONTINUOUS
 62
    7
 10
206.1736755
 20
133.44119499999999
 11
208.03126550000002
 21
134.594683
  0
LINE
  8
_0-0_0
  6
CONTINUOUS
 62
    7
 10
208.03126550000002
 20
134.594683
 11
208.2267985
 21
133.44119499999999
  0
LINE
  8
_0-0_0
  6
CONTINUOUS
 62
    7
 10
208.2267985
 20
133.44119499999999
 11
209.69331750000001
 21
134.48214899999999
  0
LINE
  8
_0-0_0
  6
CONTINUOUS
 62
    7
 10
209.69331750000001
 20
134.48214899999999
 11
210.93170549999999
 21
135.12922900000001
  0
LINE
  8
_0-0_0
  6
CONTINUOUS
 62
    7
 10
210.93170549999999
 20
135.12922900000001
 11
211.77902750000001
 21
135.635638
  0
LINE
  8
_0-0_0
  6
CONTINUOUS
 62
    7
 10
211.77902750000001
 20
135.635638
 11
212.3004565
 21
136.05764199999999
  0
LINE
  8
_0-0_0
  6
CONTINUOUS
 62
    7
 10
212.3004565
 20
136.05764199999999
 11
212.72411750000001
 21
136.47965099999999
  0
LINE
  8
_0-0_0
  6
CONTINUOUS
 62
    7
 10
212.72411750000001
 20
136.47965099999999
 11
213.24554649999999
 21
136.78912600000001
  0
LINE
  8
_0-0_0
  6
CONTINUOUS
 62
    7
 10
213.24554649999999
 20
136.78912600000001
 11
213.86474250000001
 21
137.40806800000001
  0
LINE
  8
_0-0_0
  6
CONTINUOUS
 62
    7
 10
213.86474250000001
 20
137.40806800000001
 11
214.38616949999999
 21
138.13954799999999
  0
LINE
  8
_0-0_0
  6
CONTINUOUS
 62
    7
 10
214.38616949999999
 20
138.13954799999999
 11
214.90759850000001
 21
138.955431
  0
LINE
  8
_0-0_0
  6
CONTINUOUS
 62
    7
 10
214.90759850000001
 20
138.955431
 11
215.52679449999999
 21
139.79944399999999
  0
LINE
  8
_0-0_0
  6
CONTINUOUS
 62
    7
 10
215.52679449999999
 20
139.79944399999999
 11
215.95045450000001
 21
140.41838999999999
  0
LINE
  8
_0-0_0
  6
CONTINUOUS
 62
    7
 10
215.95045450000001
 20
140.41838999999999
 11
216.47188149999999
 21
141.45934499999998
  0
LINE
  8
_0-0_0
  6
CONTINUOUS
 62
    7
 10
216.47188149999999
 20
141.45934499999998
 11
216.99331050000001
 21
142.303358
  0
LINE
  8
_0-0_0
  6
CONTINUOUS
 62
    7
 10
216.99331050000001
 20
142.303358
 11
217.28661349999999
 21
143.231775
  0
LINE
  8
_0-0_0
  6
CONTINUOUS
 62
    7
 10
217.28661349999999
 20
143.231775
 11
217.93839850000001
 21
144.582201
  0
LINE
  8
_0-0_0
  6
CONTINUOUS
 62
    7
 10
217.93839850000001
 20
144.582201
 11
218.6553625
 21
145.42621400000002
  0
LINE
  8
_0-0_0
  6
CONTINUOUS
 62
    7
 10
218.6553625
 20
145.42621400000002
 11
219.37232549999999
 21
146.04516000000001
  0
LINE
  8
_0-0_0
  6
CONTINUOUS
 62
    7
 10
219.37232549999999
 20
146.04516000000001
 11
219.9915215
 21
146.57970299999999
  0
LINE
  8
_0-0_0
  6
CONTINUOUS
 62
    7
 10
219.9915215
 20
146.57970299999999
 11
220.41518150000002
 21
146.776644
  0
LINE
  8
_0-0_0
  6
CONTINUOUS
 62
    7
 10
220.41518150000002
 20
146.776644
 11
220.9366105
 21
146.973581
  0
LINE
  8
_0-0_0
  6
CONTINUOUS
 62
    7
 10
220.9366105
 20
146.973581
 11
221.45803849999999
 21
147.19864899999999
  0
LINE
  8
_0-0_0
  6
CONTINUOUS
 62
    7
 10
221.45803849999999
 20
147.19864899999999
 11
221.68616449999999
 21
147.19864899999999
  0
LINE
  8
_0-0_0
  6
CONTINUOUS
 62
    7
 10
222.47677949999999
 20
145.97345200000001
 11
226.5272635
 21
145.229468
  0
ARC
  8
_0-0_0
  6
CONTINUOUS
 62
    7
 10
230.8328435
 20
160.526522
 40
15.891442
 50
254.279965
 51
283.370069
  0
ARC
  8
_0-0_0
  6
CONTINUOUS
 62
    7
 10
233.44923349999999
 20
150.34669700000001
 40
5.3859120000000003
 50
281.33248700000001
 51
313.07346899999999
  0
LINE
  8
_0-0_0
  6
CONTINUOUS
 62
    7
 10
237.1274635
 20
146.41240099999999
 11
237.89446950000001
 21
148.48067700000001
  0
ARC
  8
_0-0_0
  6
CONTINUOUS
 62
    7
 10
236.05927249999999
 20
148.997049
 40
1.90646
 50
344.28489200000001
 51
33.27494999999999
  0
LINE
  8
_0-0_0
  6
CONTINUOUS
 62
    7
 10
237.65316350000001
 20
150.043047
 11
237.45495149999999
 21
150.23648300000002
  0
LINE
  8
_0-0_0
  6
CONTINUOUS
 62
    7
 10
237.45495149999999
 20
150.23648300000002
 11
237.2653535
 21
150.23648300000002
  0
LINE
  8
_0-0_0
  6
CONTINUOUS
 62
    7
 10
237.2653535
 20
150.23648300000002
 11
237.1274635
 21
150.214159
  0
ARC
  8
_0-0_0
  6
CONTINUOUS
 62
    7
 10
231.11901850000001
 20
182.62127100000001
 40
32.959400000000002
 50
262.56626899999998
 51
280.50365699999998
  0
LINE
  8
_0-0_0
  6
CONTINUOUS
 62
    7
 10
218.22026049999999
 20
150.52953500000001
 11
218.13393350000001
 21
151.24992600000002
  0
ARC
  8
_0-0_0
  6
CONTINUOUS
 62
    7
 10
220.01394049999999
 20
113.343062
 40
37.229705000000003
 50
79.411966000000007
 51
92.761509000000004
  0
ARC
  8
_0-0_0
  6
CONTINUOUS
 62
    7
 10
221.49370350000001
 20
141.08563100000001
 40
4.985703
 50
78.627955999999998
 51
136.22939299999999
  0
LINE
  8
_0-0_0
  6
CONTINUOUS
 62
    7
 10
153.8027385
 20
138.02701400000001
 11
156.2795155
 21
139.99638200000001
  0
LINE
  8
_0-0_0
  6
CONTINUOUS
 62
    7
 10
156.2795155
 20
139.99638200000001
 11
158.16969750000001
 21
140.952933
  0
LINE
  8
_0-0_0
  6
CONTINUOUS
 62
    7
 10
158.16969750000001
 20
140.952933
 11
159.50585649999999
 21
141.571879
  0
LINE
  8
_0-0_0
  6
CONTINUOUS
 62
    7
 10
159.50585649999999
 20
141.571879
 11
160.35317649999999
 21
142.07828699999999
  0
LINE
  8
_0-0_0
  6
CONTINUOUS
 62
    7
 10
160.35317649999999
 20
142.07828699999999
 11
160.8746075
 21
142.50029599999999
  0
LINE
  8
_0-0_0
  6
CONTINUOUS
 62
    7
 10
160.8746075
 20
142.50029599999999
 11
161.8196915
 21
143.03483800000001
  0
LINE
  8
_0-0_0
  6
CONTINUOUS
 62
    7
 10
161.8196915
 20
143.03483800000001
 11
162.73219750000001
 21
143.541247
  0
LINE
  8
_0-0_0
  6
CONTINUOUS
 62
    7
 10
162.73219750000001
 20
143.541247
 11
163.67728149999999
 21
144.07579200000001
  0
LINE
  8
_0-0_0
  6
CONTINUOUS
 62
    7
 10
163.67728149999999
 20
144.07579200000001
 11
165.33932949999999
 21
144.69473500000001
  0
LINE
  8
_0-0_0
  6
CONTINUOUS
 62
    7
 10
165.33932949999999
 20
144.69473500000001
 11
166.9036145
 21
145.11674299999999
  0
LINE
  8
_0-0_0
  6
CONTINUOUS
 62
    7
 10
166.9036145
 20
145.11674299999999
 11
169.60852450000002
 21
145.84822300000002
  0
LINE
  8
_0-0_0
  6
CONTINUOUS
 62
    7
 10
169.60852450000002
 20
145.84822300000002
 11
170.6513865
 21
146.15769399999999
  0
LINE
  8
_0-0_0
  6
CONTINUOUS
 62
    7
 10
170.6513865
 20
146.15769399999999
 11
172.02013049999999
 21
146.35463200000001
  0
LINE
  8
_0-0_0
  6
CONTINUOUS
 62
    7
 10
172.02013049999999
 20
146.35463200000001
 11
173.06299250000001
 21
146.776644
  0
LINE
  8
_0-0_0
  6
CONTINUOUS
 62
    7
 10
173.06299250000001
 20
146.776644
 11
174.72504050000001
 21
147.311182
  0
LINE
  8
_0-0_0
  6
CONTINUOUS
 62
    7
 10
174.72504050000001
 20
147.311182
 11
176.90852050000001
 21
147.81759099999999
  0
LINE
  8
_0-0_0
  6
CONTINUOUS
 62
    7
 10
176.90852050000001
 20
147.81759099999999
 11
178.47280549999999
 21
148.23960299999999
  0
LINE
  8
_0-0_0
  6
CONTINUOUS
 62
    7
 10
178.47280549999999
 20
148.23960299999999
 11
180.55851749999999
 21
148.661608
  0
LINE
  8
_0-0_0
  6
CONTINUOUS
 62
    7
 10
180.55851749999999
 20
148.661608
 11
183.13306850000001
 21
149.05548299999998
  0
LINE
  8
_0-0_0
  6
CONTINUOUS
 62
    7
 10
183.13306850000001
 20
149.05548299999998
 11
184.8277095
 21
149.28055000000001
  0
LINE
  8
_0-0_0
  6
CONTINUOUS
 62
    7
 10
184.8277095
 20
149.28055000000001
 11
187.01119249999999
 21
149.47748799999999
  0
LINE
  8
_0-0_0
  6
CONTINUOUS
 62
    7
 10
187.01119249999999
 20
149.47748799999999
 11
188.9665455
 21
149.702562
  0
LINE
  8
_0-0_0
  6
CONTINUOUS
 62
    7
 10
188.9665455
 20
149.702562
 11
190.62859750000001
 21
149.89949999999999
  0
LINE
  8
_0-0_0
  6
CONTINUOUS
 62
    7
 10
190.62859750000001
 20
149.89949999999999
 11
192.1928825
 21
150.012034
  0
LINE
  8
_0-0_0
  6
CONTINUOUS
 62
    7
 10
192.1928825
 20
150.012034
 11
193.75716750000001
 21
150.09643800000001
  0
LINE
  8
_0-0_0
  6
CONTINUOUS
 62
    7
 10
193.75716750000001
 20
150.09643800000001
 11
195.41922049999999
 21
150.20897100000002
  0
LINE
  8
_0-0_0
  6
CONTINUOUS
 62
    7
 10
195.41922049999999
 20
150.20897100000002
 11
196.6902005
 21
150.20897100000002
  0
LINE
  8
_0-0_0
  6
CONTINUOUS
 62
    7
 10
196.6902005
 20
150.20897100000002
 11
197.6352885
 21
150.321505
  0
LINE
  8
_0-0_0
  6
CONTINUOUS
 62
    7
 10
197.6352885
 20
150.321505
 11
199.6884115
 21
150.321505
  0
LINE
  8
_0-0_0
  6
CONTINUOUS
 62
    7
 10
199.6884115
 20
150.321505
 11
201.25269750000001
 21
150.321505
  0
LINE
  8
_0-0_0
  6
CONTINUOUS
 62
    7
 10
201.25269750000001
 20
150.321505
 11
202.39332150000001
 21
150.321505
  0
LINE
  8
_0-0_0
  6
CONTINUOUS
 62
    7
 10
202.39332150000001
 20
150.321505
 11
203.56653549999999
 21
150.09643800000001
  0
LINE
  8
_0-0_0
  6
CONTINUOUS
 62
    7
 10
203.56653549999999
 20
150.09643800000001
 11
204.60939050000002
 21
150.012034
  0
LINE
  8
_0-0_0
  6
CONTINUOUS
 62
    7
 10
204.60939050000002
 20
150.012034
 11
205.84778249999999
 21
149.89949999999999
  0
LINE
  8
_0-0_0
  6
CONTINUOUS
 62
    7
 10
205.84778249999999
 20
149.89949999999999
 11
207.41206750000001
 21
149.702562
  0
LINE
  8
_0-0_0
  6
CONTINUOUS
 62
    7
 10
207.41206750000001
 20
149.702562
 11
208.87858549999999
 21
149.702562
  0
LINE
  8
_0-0_0
  6
CONTINUOUS
 62
    7
 10
208.87858549999999
 20
149.702562
 11
210.21474449999999
 21
149.702562
  0
LINE
  8
_0-0_0
  6
CONTINUOUS
 62
    7
 10
210.21474449999999
 20
149.702562
 11
211.2576005
 21
149.47748799999999
  0
LINE
  8
_0-0_0
  6
CONTINUOUS
 62
    7
 10
211.2576005
 20
149.47748799999999
 11
213.01742150000001
 21
149.47748799999999
  0
LINE
  8
_0-0_0
  6
CONTINUOUS
 62
    7
 10
213.01742150000001
 20
149.47748799999999
 11
213.6692065
 21
149.393091
  0
LINE
  8
_0-0_0
  6
CONTINUOUS
 62
    7
 10
213.6692065
 20
149.393091
 11
215.42902549999999
 21
149.28055000000001
  0
LINE
  8
_0-0_0
  6
CONTINUOUS
 62
    7
 10
215.42902549999999
 20
149.28055000000001
 11
215.95045450000001
 21
149.28055000000001
  0
LINE
  8
_0-0_0
  6
CONTINUOUS
 62
    7
 10
215.95045450000001
 20
149.28055000000001
 11
217.5147375
 21
149.16801700000002
  0
ARC
  8
_0-0_0
  6
CONTINUOUS
 62
    7
 10
167.2412765
 20
121.71434600000001
 40
25.000440000000001
 50
84.041209000000009
 51
114.93036400000001
  0
ARC
  8
_0-0_0
  6
CONTINUOUS
 62
    7
 10
165.8846935
 20
113.983946
 40
39.100768000000002
 50
66.299655999999999
 51
93.236317
  0
ARC
  8
_0-0_0
  6
CONTINUOUS
 62
    7
 10
168.8645745
 20
123.918108
 40
34.784686999999998
 50
51.268008000000002
 51
81.713713000000013
  0
ARC
  8
_0-0_0
  6
CONTINUOUS
 62
    7
 10
181.5427215
 20
141.881609
 40
21.315355
 50
26.409879
 51
70.456338000000002
  0
ARC
  8
_0-0_0
  6
CONTINUOUS
 62
    7
 10
195.49431250000001
 20
147.19988499999999
 40
15.093514000000001
 50
14.348914000000001
 51
52.382691000000001
  0
LINE
  8
_0-0_0
  6
CONTINUOUS
 62
    7
 10
155.9862105
 20
139.06796500000002
 11
158.36523149999999
 21
140.530924
  0
LINE
  8
_0-0_0
  6
CONTINUOUS
 62
    7
 10
158.36523149999999
 20
140.530924
 11
160.0272875
 21
141.37494100000001
  0
LINE
  8
_0-0_0
  6
CONTINUOUS
 62
    7
 10
160.0272875
 20
141.37494100000001
 11
161.07014150000001
 21
141.88135
  0
LINE
  8
_0-0_0
  6
CONTINUOUS
 62
    7
 10
161.07014150000001
 20
141.88135
 11
163.8728145
 21
143.231775
  0
LINE
  8
_0-0_0
  6
CONTINUOUS
 62
    7
 10
163.8728145
 20
143.231775
 11
164.91566950000001
 21
143.85072199999999
  0
LINE
  8
_0-0_0
  6
CONTINUOUS
 62
    7
 10
164.91566950000001
 20
143.85072199999999
 11
166.47995449999999
 21
144.27273
  0
LINE
  8
_0-0_0
  6
CONTINUOUS
 62
    7
 10
166.47995449999999
 20
144.27273
 11
167.94647649999999
 21
144.69473500000001
  0
LINE
  8
_0-0_0
  6
CONTINUOUS
 62
    7
 10
167.94647649999999
 20
144.69473500000001
 11
169.08710149999999
 21
145.11674299999999
  0
LINE
  8
_0-0_0
  6
CONTINUOUS
 62
    7
 10
169.08710149999999
 20
145.11674299999999
 11
170.6513865
 21
145.84822300000002
  0
LINE
  8
_0-0_0
  6
CONTINUOUS
 62
    7
 10
170.6513865
 20
145.84822300000002
 11
173.06299250000001
 21
146.270231
  0
LINE
  8
_0-0_0
  6
CONTINUOUS
 62
    7
 10
173.06299250000001
 20
146.270231
 11
174.39914350000001
 21
146.66410300000001
  0
LINE
  8
_0-0_0
  6
CONTINUOUS
 62
    7
 10
174.39914350000001
 20
146.66410300000001
 11
176.3870895
 21
146.973581
  0
LINE
  8
_0-0_0
  6
CONTINUOUS
 62
    7
 10
176.3870895
 20
146.973581
 11
177.6254845
 21
147.311182
  0
LINE
  8
_0-0_0
  6
CONTINUOUS
 62
    7
 10
177.6254845
 20
147.311182
 11
179.38530349999999
 21
147.50812000000002
  0
LINE
  8
_0-0_0
  6
CONTINUOUS
 62
    7
 10
179.38530349999999
 20
147.50812000000002
 11
182.51387449999999
 21
148.43654100000001
  0
LINE
  8
_0-0_0
  6
CONTINUOUS
 62
    7
 10
182.51387449999999
 20
148.43654100000001
 11
183.78485549999999
 21
148.74601200000001
  0
LINE
  8
_0-0_0
  6
CONTINUOUS
 62
    7
 10
183.78485549999999
 20
148.74601200000001
 11
185.0232475
 21
148.85854499999999
  0
LINE
  8
_0-0_0
  6
CONTINUOUS
 62
    7
 10
185.0232475
 20
148.85854499999999
 11
187.01119249999999
 21
149.05548299999998
  0
LINE
  8
_0-0_0
  6
CONTINUOUS
 62
    7
 10
187.01119249999999
 20
149.05548299999998
 11
189.4879765
 21
149.05548299999998
  0
LINE
  8
_0-0_0
  6
CONTINUOUS
 62
    7
 10
189.4879765
 20
149.05548299999998
 11
190.95449049999999
 21
149.28055000000001
  0
LINE
  8
_0-0_0
  6
CONTINUOUS
 62
    7
 10
190.95449049999999
 20
149.28055000000001
 11
192.5187765
 21
149.393091
  0
LINE
  8
_0-0_0
  6
CONTINUOUS
 62
    7
 10
192.5187765
 20
149.393091
 11
194.70225550000001
 21
149.47748799999999
  0
LINE
  8
_0-0_0
  6
CONTINUOUS
 62
    7
 10
194.70225550000001
 20
149.47748799999999
 11
195.7451135
 21
149.47748799999999
  0
LINE
  8
_0-0_0
  6
CONTINUOUS
 62
    7
 10
195.7451135
 20
149.47748799999999
 11
197.21162850000002
 21
149.47748799999999
  0
LINE
  8
_0-0_0
  6
CONTINUOUS
 62
    7
 10
197.21162850000002
 20
149.47748799999999
 11
198.54779050000002
 21
149.59002900000002
  0
LINE
  8
_0-0_0
  6
CONTINUOUS
 62
    7
 10
198.54779050000002
 20
149.59002900000002
 11
199.8187715
 21
149.702562
  0
LINE
  8
_0-0_0
  6
CONTINUOUS
 62
    7
 10
199.8187715
 20
149.702562
 11
202.52367750000002
 21
149.47748799999999
  0
LINE
  8
_0-0_0
  6
CONTINUOUS
 62
    7
 10
202.52367750000002
 20
149.47748799999999
 11
205.42412150000001
 21
149.47748799999999
  0
LINE
  8
_0-0_0
  6
CONTINUOUS
 62
    7
 10
205.42412150000001
 20
149.47748799999999
 11
206.3692135
 21
149.393091
  0
LINE
  8
_0-0_0
  6
CONTINUOUS
 62
    7
 10
206.3692135
 20
149.393091
 11
208.2267985
 21
149.28055000000001
  0
LINE
  8
_0-0_0
  6
CONTINUOUS
 62
    7
 10
208.2267985
 20
149.28055000000001
 11
210.21474449999999
 21
148.971079
  0
LINE
  8
_0-0_0
  6
CONTINUOUS
 62
    7
 10
210.21474449999999
 20
148.971079
 11
212.3982235
 21
149.05548299999998
  0
LINE
  8
_0-0_0
  6
CONTINUOUS
 62
    7
 10
212.3982235
 20
149.05548299999998
 11
213.86474250000001
 21
149.16801700000002
  0
LINE
  8
_0-0_0
  6
CONTINUOUS
 62
    7
 10
216.7651865
 20
148.85854499999999
 11
215.33125849999999
 21
148.352137
  0
LINE
  8
_0-0_0
  6
CONTINUOUS
 62
    7
 10
215.33125849999999
 20
148.352137
 11
213.86474250000001
 21
146.776644
  0
LINE
  8
_0-0_0
  6
CONTINUOUS
 62
    7
 10
213.86474250000001
 20
146.776644
 11
213.4410815
 21
146.35463200000001
  0
LINE
  8
_0-0_0
  6
CONTINUOUS
 62
    7
 10
213.4410815
 20
146.35463200000001
 11
213.14777749999999
 21
145.53875199999999
  0
LINE
  8
_0-0_0
  6
CONTINUOUS
 62
    7
 10
212.72411750000001
 20
144.69473500000001
 11
212.4959925
 21
143.963255
  0
LINE
  8
_0-0_0
  6
CONTINUOUS
 62
    7
 10
212.4959925
 20
143.963255
 11
211.06206550000002
 21
141.14986999999999
  0
LINE
  8
_0-0_0
  6
CONTINUOUS
 62
    7
 10
211.06206550000002
 20
141.14986999999999
 11
210.3125115
 21
139.37743599999999
  0
LINE
  8
_0-0_0
  6
CONTINUOUS
 62
    7
 10
210.3125115
 20
139.37743599999999
 11
208.97635250000002
 21
136.98605900000001
  0
LINE
  8
_0-0_0
  6
CONTINUOUS
 62
    7
 10
208.97635250000002
 20
136.98605900000001
 11
210.0192065
 21
137.21113
  0
LINE
  8
_0-0_0
  6
CONTINUOUS
 62
    7
 10
210.0192065
 20
137.21113
 11
211.06206550000002
 21
138.75849399999998
  0
LINE
  8
_0-0_0
  6
CONTINUOUS
 62
    7
 10
211.68126050000001
 20
139.99638200000001
 11
212.3982235
 21
141.03733700000001
  0
LINE
  8
_0-0_0
  6
CONTINUOUS
 62
    7
 10
212.3982235
 20
141.03733700000001
 11
213.01742150000001
 21
142.19082500000002
  0
LINE
  8
_0-0_0
  6
CONTINUOUS
 62
    7
 10
213.01742150000001
 20
142.19082500000002
 11
213.5388485
 21
143.34430900000001
  0
LINE
  8
_0-0_0
  6
CONTINUOUS
 62
    7
 10
213.5388485
 20
143.34430900000001
 11
213.86474250000001
 21
144.582201
  0
LINE
  8
_0-0_0
  6
CONTINUOUS
 62
    7
 10
213.86474250000001
 20
144.582201
 11
214.15804450000002
 21
145.42621400000002
  0
LINE
  8
_0-0_0
  6
CONTINUOUS
 62
    7
 10
214.15804450000002
 20
145.42621400000002
 11
215.00536550000001
 21
147.08611500000001
  0
LINE
  8
_0-0_0
  6
CONTINUOUS
 62
    7
 10
215.00536550000001
 20
147.08611500000001
 11
215.85268550000001
 21
147.93013200000001
  0
LINE
  8
_0-0_0
  6
CONTINUOUS
 62
    7
 10
181.07994450000001
 20
133.750666
 11
183.55672849999999
 21
135.83257499999999
  0
LINE
  8
_0-0_0
  6
CONTINUOUS
 62
    7
 10
185.44690750000001
 20
137.21113
 11
186.39199450000001
 21
138.02701400000001
  0
LINE
  8
_0-0_0
  6
CONTINUOUS
 62
    7
 10
186.39199450000001
 20
138.02701400000001
 11
187.30449350000001
 21
138.64596
  0
LINE
  8
_0-0_0
  6
CONTINUOUS
 62
    7
 10
187.30449350000001
 20
138.64596
 11
188.3473515
 21
139.48997299999999
  0
LINE
  8
_0-0_0
  6
CONTINUOUS
 62
    7
 10
188.3473515
 20
139.48997299999999
 11
188.9665455
 21
140.221453
  0
LINE
  8
_0-0_0
  6
CONTINUOUS
 62
    7
 10
188.9665455
 20
140.221453
 11
189.81386549999999
 21
141.14986999999999
  0
LINE
  8
_0-0_0
  6
CONTINUOUS
 62
    7
 10
189.81386549999999
 20
141.14986999999999
 11
190.85672349999999
 21
142.19082500000002
  0
LINE
  8
_0-0_0
  6
CONTINUOUS
 62
    7
 10
190.85672349999999
 20
142.19082500000002
 11
191.89957850000002
 21
143.231775
  0
LINE
  8
_0-0_0
  6
CONTINUOUS
 62
    7
 10
191.89957850000002
 20
143.231775
 11
193.4638635
 21
144.69473500000001
  0
LINE
  8
_0-0_0
  6
CONTINUOUS
 62
    7
 10
193.4638635
 20
144.69473500000001
 11
194.5067215
 21
145.53875199999999
  0
LINE
  8
_0-0_0
  6
CONTINUOUS
 62
    7
 10
194.5067215
 20
145.53875199999999
 11
195.6473465
 21
146.15769399999999
  0
LINE
  8
_0-0_0
  6
CONTINUOUS
 62
    7
 10
195.6473465
 20
146.15769399999999
 11
197.11386149999998
 21
146.776644
  0
LINE
  8
_0-0_0
  6
CONTINUOUS
 62
    7
 10
197.11386149999998
 20
146.776644
 11
198.02635950000001
 21
147.39558599999998
  0
LINE
  8
_0-0_0
  6
CONTINUOUS
 62
    7
 10
198.02635950000001
 20
147.39558599999998
 11
199.06921750000001
 21
147.70505700000001
  0
LINE
  8
_0-0_0
  6
CONTINUOUS
 62
    7
 10
201.15493050000001
 20
148.127062
 11
203.1428755
 21
148.661608
  0
LINE
  8
_0-0_0
  6
CONTINUOUS
 62
    7
 10
203.1428755
 20
148.661608
 11
204.70715749999999
 21
148.85854499999999
  0
LINE
  8
_0-0_0
  6
CONTINUOUS
 62
    7
 10
204.70715749999999
 20
148.85854499999999
 11
206.1736755
 21
149.05548299999998
  0
LINE
  8
_0-0_0
  6
CONTINUOUS
 62
    7
 10
206.1736755
 20
149.05548299999998
 11
205.75001550000002
 21
148.74601200000001
  0
LINE
  8
_0-0_0
  6
CONTINUOUS
 62
    7
 10
205.75001550000002
 20
148.74601200000001
 11
204.38126750000001
 21
148.127062
  0
LINE
  8
_0-0_0
  6
CONTINUOUS
 62
    7
 10
204.38126750000001
 20
148.127062
 11
203.43617649999999
 21
147.70505700000001
  0
LINE
  8
_0-0_0
  6
CONTINUOUS
 62
    7
 10
203.43617649999999
 20
147.70505700000001
 11
202.39332150000001
 21
147.08611500000001
  0
LINE
  8
_0-0_0
  6
CONTINUOUS
 62
    7
 10
202.39332150000001
 20
147.08611500000001
 11
201.57859050000002
 21
146.66410300000001
  0
LINE
  8
_0-0_0
  6
CONTINUOUS
 62
    7
 10
201.57859050000002
 20
146.66410300000001
 11
200.7312695
 21
146.15769399999999
  0
LINE
  8
_0-0_0
  6
CONTINUOUS
 62
    7
 10
200.7312695
 20
146.15769399999999
 11
199.8187715
 21
145.42621400000002
  0
LINE
  8
_0-0_0
  6
CONTINUOUS
 62
    7
 10
199.8187715
 20
145.42621400000002
 11
198.9714505
 21
144.38526400000001
  0
LINE
  8
_0-0_0
  6
CONTINUOUS
 62
    7
 10
197.92859250000001
 20
143.231775
 11
197.40716550000002
 21
142.19082500000002
  0
LINE
  8
_0-0_0
  6
CONTINUOUS
 62
    7
 10
197.40716550000002
 20
142.19082500000002
 11
196.98350550000001
 21
141.45934499999998
  0
LINE
  8
_0-0_0
  6
CONTINUOUS
 62
    7
 10
196.98350550000001
 20
141.45934499999998
 11
196.16877349999999
 21
140.643461
  0
LINE
  8
_0-0_0
  6
CONTINUOUS
 62
    7
 10
196.16877349999999
 20
140.643461
 11
194.70225550000001
 21
139.06796500000002
  0
LINE
  8
_0-0_0
  6
CONTINUOUS
 62
    7
 10
194.70225550000001
 20
139.06796500000002
 11
193.88752349999999
 21
138.13954799999999
  0
LINE
  8
_0-0_0
  6
CONTINUOUS
 62
    7
 10
193.88752349999999
 20
138.13954799999999
 11
192.61654250000001
 21
137.52060499999999
  0
LINE
  8
_0-0_0
  6
CONTINUOUS
 62
    7
 10
192.61654250000001
 20
137.52060499999999
 11
191.2803845
 21
136.873526
  0
LINE
  8
_0-0_0
  6
CONTINUOUS
 62
    7
 10
188.57547349999999
 20
136.17018000000002
 11
187.2067265
 21
135.635638
  0
LINE
  8
_0-0_0
  6
CONTINUOUS
 62
    7
 10
187.2067265
 20
135.635638
 11
185.21878050000001
 21
135.01669200000001
  0
LINE
  8
_0-0_0
  6
CONTINUOUS
 62
    7
 10
185.21878050000001
 20
135.01669200000001
 11
184.50181950000001
 21
134.594683
  0
LINE
  8
_0-0_0
  6
CONTINUOUS
 62
    7
 10
184.50181950000001
 20
134.594683
 11
182.51387449999999
 21
134.08827400000001
  0
LINE
  8
_0-0_0
  6
CONTINUOUS
 62
    7
 10
167.0013855
 20
135.01669200000001
 11
169.08710149999999
 21
135.5231
  0
LINE
  8
_0-0_0
  6
CONTINUOUS
 62
    7
 10
169.08710149999999
 20
135.5231
 11
170.97727649999999
 21
136.47965099999999
  0
LINE
  8
_0-0_0
  6
CONTINUOUS
 62
    7
 10
170.97727649999999
 20
136.47965099999999
 11
172.73709550000001
 21
136.98605900000001
  0
LINE
  8
_0-0_0
  6
CONTINUOUS
 62
    7
 10
172.73709550000001
 20
136.98605900000001
 11
173.77994950000001
 21
137.52060499999999
  0
LINE
  8
_0-0_0
  6
CONTINUOUS
 62
    7
 10
173.77994950000001
 20
137.52060499999999
 11
174.72504050000001
 21
138.02701400000001
  0
LINE
  8
_0-0_0
  6
CONTINUOUS
 62
    7
 10
176.3870895
 20
139.293036
 11
177.33218049999999
 21
140.10891900000001
  0
LINE
  8
_0-0_0
  6
CONTINUOUS
 62
    7
 10
177.33218049999999
 20
140.10891900000001
 11
178.04914550000001
 21
140.84039899999999
  0
LINE
  8
_0-0_0
  6
CONTINUOUS
 62
    7
 10
178.04914550000001
 20
140.84039899999999
 11
179.09199949999999
 21
141.571879
  0
LINE
  8
_0-0_0
  6
CONTINUOUS
 62
    7
 10
179.09199949999999
 20
141.571879
 11
179.7111975
 21
142.07828699999999
  0
LINE
  8
_0-0_0
  6
CONTINUOUS
 62
    7
 10
179.7111975
 20
142.07828699999999
 11
180.42816149999999
 21
142.72536700000001
  0
LINE
  8
_0-0_0
  6
CONTINUOUS
 62
    7
 10
183.78485549999999
 20
144.80727200000001
 11
184.69735349999999
 21
145.313681
  0
LINE
  8
_0-0_0
  6
CONTINUOUS
 62
    7
 10
184.69735349999999
 20
145.313681
 11
186.48976149999999
 21
146.270231
  0
LINE
  8
_0-0_0
  6
CONTINUOUS
 62
    7
 10
186.48976149999999
 20
146.270231
 11
187.63038649999999
 21
146.776644
  0
LINE
  8
_0-0_0
  6
CONTINUOUS
 62
    7
 10
187.63038649999999
 20
146.776644
 11
188.77101149999999
 21
147.311182
  0
LINE
  8
_0-0_0
  6
CONTINUOUS
 62
    7
 10
188.77101149999999
 20
147.311182
 11
189.71609849999999
 21
147.70505700000001
  0
LINE
  8
_0-0_0
  6
CONTINUOUS
 62
    7
 10
189.71609849999999
 20
147.70505700000001
 11
190.95449049999999
 21
148.01452799999998
  0
LINE
  8
_0-0_0
  6
CONTINUOUS
 62
    7
 10
190.95449049999999
 20
148.01452799999998
 11
192.4210095
 21
148.43654100000001
  0
LINE
  8
_0-0_0
  6
CONTINUOUS
 62
    7
 10
195.7451135
 20
148.85854499999999
 11
194.08306149999999
 21
148.352137
  0
LINE
  8
_0-0_0
  6
CONTINUOUS
 62
    7
 10
194.08306149999999
 20
148.352137
 11
191.67145550000001
 21
147.19864899999999
  0
LINE
  8
_0-0_0
  6
CONTINUOUS
 62
    7
 10
191.67145550000001
 20
147.19864899999999
 11
190.53083050000001
 21
146.66410300000001
  0
LINE
  8
_0-0_0
  6
CONTINUOUS
 62
    7
 10
190.53083050000001
 20
146.66410300000001
 11
189.4879765
 21
145.84822300000002
  0
LINE
  8
_0-0_0
  6
CONTINUOUS
 62
    7
 10
189.4879765
 20
145.84822300000002
 11
188.44511850000001
 21
145.11674299999999
  0
LINE
  8
_0-0_0
  6
CONTINUOUS
 62
    7
 10
188.44511850000001
 20
145.11674299999999
 11
187.72815350000002
 21
144.582201
  0
LINE
  8
_0-0_0
  6
CONTINUOUS
 62
    7
 10
187.72815350000002
 20
144.582201
 11
186.8808325
 21
143.653784
  0
LINE
  8
_0-0_0
  6
CONTINUOUS
 62
    7
 10
186.8808325
 20
143.653784
 11
186.2616385
 21
142.80976699999999
  0
LINE
  8
_0-0_0
  6
CONTINUOUS
 62
    7
 10
184.1759265
 20
141.14986999999999
 11
183.36119450000001
 21
140.41838999999999
  0
LINE
  8
_0-0_0
  6
CONTINUOUS
 62
    7
 10
183.36119450000001
 20
140.41838999999999
 11
181.7969095
 21
139.48997299999999
  0
LINE
  8
_0-0_0
  6
CONTINUOUS
 62
    7
 10
181.7969095
 20
139.48997299999999
 11
179.09199949999999
 21
137.71753899999999
  0
LINE
  8
_0-0_0
  6
CONTINUOUS
 62
    7
 10
179.09199949999999
 20
137.71753899999999
 11
178.14691550000001
 21
137.09859699999998
  0
LINE
  8
_0-0_0
  6
CONTINUOUS
 62
    7
 10
178.14691550000001
 20
137.09859699999998
 11
176.68039350000001
 21
136.56405100000001
  0
LINE
  8
_0-0_0
  6
CONTINUOUS
 62
    7
 10
175.53976850000001
 20
136.17018000000002
 11
172.8348585
 21
135.74817100000001
  0
LINE
  8
_0-0_0
  6
CONTINUOUS
 62
    7
 10
172.8348585
 20
135.74817100000001
 11
172.11790149999999
 21
135.74817100000001
  0
LINE
  8
_0-0_0
  6
CONTINUOUS
 62
    7
 10
172.11790149999999
 20
135.74817100000001
 11
168.79379750000001
 21
135.43870000000001
  0
ENDSEC
  0
EOF
