  0
SECTION
  2
HEADER
  9
$ACADVER
  1
AC1009
  9
$INSBASE
 10
0
 20
0
 30
0
  9
$EXTMIN
 10
0
 20
0
  9
$EXTMAX
 10
420
 20
297
  9
$LIMMIN
 10
0
 20
0
  9
$LIMMAX
 10
420
 20
297
  9
$LTSCALE
 40
1
  0
ENDSEC
  0
SECTION
  2
TABLES
  0
TABLE
  2
LTYPE
 70
     9
  0
LTYPE
  2
CONTINUOUS
 70
    64
  3
実線
 72
    65
 73
     0
 40
0.0
  0
LTYPE
  2
DASHED1
 70
    64
  3
--  --  --  --  --  --  --  --  
 72
    65
 73
     2
 40
2.5
 49
1.25
 49
-1.25
  0
LTYPE
  2
DASHED2
 70
    64
  3
----    ----    ----    ----    
 72
    65
 73
     2
 40
5.0
 49
2.5
 49
-2.5
  0
LTYPE
  2
DASHED3
 70
    64
  3
------  ------  ------  ------  
 72
    65
 73
     2
 40
5.0
 49
3.75
 49
-1.25
  0
LTYPE
  2
CENTER1
 70
    64
  3
----- - ----- - ----- - ----- - 
 72
    65
 73
     4
 40
10.0
 49
6.25
 49
-1.25
 49
1.25
 49
-1.25
  0
LTYPE
  2
CENTER2
 70
    64
  3
----------  --  ----------  --  
 72
    65
 73
     4
 40
20.0
 49
12.5
 49
-2.5
 49
2.5
 49
-2.5
  0
LTYPE
  2
PHANTOM1
 70
    64
  3
--- - - --- - - --- - - --- - - 
 72
    65
 73
     6
 40
10.0
 49
3.25
 49
-1.25
 49
1.25
 49
-1.25
 49
1.25
 49
-1.25
  0
LTYPE
  2
PHANTOM2
 70
    64
  3
--------  -  -  --------  -  -  
 72
    65
 73
     6
 40
20.0
 49
10.0
 49
-2.5
 49
1.25
 49
-2.5
 49
1.25
 49
-2.5
  0
LTYPE
  2
DOT
 70
    64
  3
-   -   -   -   -   -   -   -   
 72
    65
 73
     2
 40
2.5
 49
0.625
 49
-1.875
  0
LTYPE
  2
DUMMY
 70
    64
  3
ダミー
 72
    65
 73
     0
 40
0.0
  0
LTYPE
  2
RAND1
 70
    64
  3
ランダム線1
 72
    65
 73
     4
 40
10.0
 49
1.0
 49
-2.0
 49
3.0
 49
-4.0
  0
LTYPE
  2
RAND2
 70
    64
  3
ランダム線2
 72
    65
 73
     4
 40
14.0
 49
2.0
 49
-3.0
 49
4.0
 49
-5.0
  0
LTYPE
  2
RAND3
 70
    64
  3
ランダム線3
 72
    65
 73
     4
 40
18.0
 49
3.0
 49
-4.0
 49
5.0
 49
-6.0
  0
LTYPE
  2
RAND4
 70
    64
  3
ランダム線4
 72
    65
 73
     4
 40
22.0
 49
4.0
 49
-5.0
 49
6.0
 49
-7.0
  0
LTYPE
  2
RAND5
 70
    64
  3
ランダム線5
 72
    65
 73
     4
 40
26.0
 49
5.0
 49
-6.0
 49
7.0
 49
-8.0
  0
LTYPE
  2
LONG1
 70
    64
  3
----------  --  ----------  --  
 72
    65
 73
     4
 40
40.0
 49
32.5
 49
-2.5
 49
2.5
 49
-2.5
  0
LTYPE
  2
LONG2
 70
    64
  3
--------  -  -  --------  -  -  
 72
    65
 73
     6
 40
40.0
 49
30.0
 49
-2.5
 49
1.25
 49
-2.5
 49
1.25
 49
-2.5
  0
LTYPE
  2
LONG3
 70
    64
  3
+++++++++++++++..+++++++++++++++
 72
    65
 73
     2
 40
40.0
 49
37.5
 49
-2.5
  0
LTYPE
  2
LONG4
 70
    64
  3
+++++++++++++++..+++++++++++++++
 72
    65
 73
     2
 40
80.0
 49
75.0
 49
-5.0
  0
LTYPE
  2
LONG5
 70
    64
  3
----------  --  ----------  --  
 72
    65
 73
     4
 40
60.0
 49
37.5
 49
-7.5
 49
7.5
 49
-7.5
  0
LTYPE
  2
dashed
 70
   64
  3
-------   -------------   ------
 72
   65
 73
    2
 40
7.5
 49
6
 49
-1.5
  0
LTYPE
  2
dashed_spaced
 70
   64
  3
----        --------        ----
 72
   65
 73
    2
 40
12
 49
6
 49
-6
  0
LTYPE
  2
long_dashed_dotted
 70
   64
  3
------------- --- --------------
 72
   65
 73
    4
 40
15.25
 49
12
 49
-1.5
 49
0.25
 49
-1.5
  0
LTYPE
  2
long_dashed_double-dotted
 70
   64
  3
----------- --- --- ------------
 72
   65
 73
    6
 40
17
 49
12
 49
-1.5
 49
0.25
 49
-1.5
 49
0.25
 49
-1.5
  0
LTYPE
  2
long_dashed_triplicate-dotted
 70
   64
  3
--------- --- --- --- ----------
 72
   65
 73
    8
 40
18.75
 49
12
 49
-1.5
 49
0.25
 49
-1.5
 49
0.25
 49
-1.5
 49
0.25
 49
-1.5
  0
LTYPE
  2
dotted
 70
   64
  3
   -       -       -       -    
 72
   65
 73
    2
 40
1.75
 49
0.25
 49
-1.5
  0
LTYPE
  2
chain
 70
   64
  3
-------------- -- --------------
 72
   65
 73
    4
 40
18.5
 49
12
 49
-1.5
 49
3.5
 49
-1.5
  0
LTYPE
  2
chain_double_dash
 70
   64
  3
------------ -- -- -------------
 72
   65
 73
    6
 40
23.5
 49
12
 49
-1.5
 49
3.5
 49
-1.5
 49
3.5
 49
-1.5
  0
LTYPE
  2
dashed_dotted
 70
   64
  3
-----------     -     ----------
 72
   65
 73
    4
 40
9.25
 49
6
 49
-1.5
 49
0.25
 49
-1.5
  0
LTYPE
  2
double-dashed_dotted
 70
   64
  3
------   -----------   -   -----
 72
   65
 73
    6
 40
16.75
 49
6
 49
-1.5
 49
6
 49
-1.5
 49
0.25
 49
-1.5
  0
LTYPE
  2
dashed_double-dotted
 70
   64
  3
---------    -    -    ---------
 72
   65
 73
    6
 40
11
 49
6
 49
-1.5
 49
0.25
 49
-1.5
 49
0.25
 49
-1.5
  0
LTYPE
  2
double-dashed_double-dotted
 70
   64
  3
-----   ---------   -   -   ----
 72
   65
 73
    8
 40
18.5
 49
6
 49
-1.5
 49
6
 49
-1.5
 49
0.25
 49
-1.5
 49
0.25
 49
-1.5
  0
LTYPE
  2
dashed_triplicate-dotted
 70
   64
  3
-------    -    -    -    ------
 72
   65
 73
    8
 40
12.75
 49
6
 49
-1.5
 49
0.25
 49
-1.5
 49
0.25
 49
-1.5
 49
0.25
 49
-1.5
  0
LTYPE
  2
double-dashed_triplicate-dotted
 70
   64
  3
-----  ---------  -  -  -  -----
 72
   65
 73
   10
 40
20.25
 49
6
 49
-1.5
 49
6
 49
-1.5
 49
0.25
 49
-1.5
 49
0.25
 49
-1.5
 49
0.25
 49
-1.5
  0
LTYPE
  2
undefined
 70
   64
  3
--------------------------------
 72
   65
 73
    0
 40
0
  0
LTYPE
  2
BORDER
 70
   64
  3
----     --------     -     ----
 72
   65
 73
    0
 40
0
  0
LTYPE
  2
BORDER2
 70
   64
  3
----     --------     -     ----
 72
   65
 73
    0
 40
0
  0
LTYPE
  2
BORDERX2
 70
   64
  3
----     --------     -     ----
 72
   65
 73
    0
 40
0
  0
LTYPE
  2
CENTER
 70
   64
  3
----------    ----    ----------
 72
   65
 73
    0
 40
0
  0
LTYPE
  2
CENTER2_21
 70
   64
  3
----------    ----    ----------
 72
   65
 73
    0
 40
0
  0
LTYPE
  2
CENTERX2
 70
   64
  3
----------    ----    ----------
 72
   65
 73
    0
 40
0
  0
LTYPE
  2
DASHDOT
 70
   64
  3
--------        -        -------
 72
   65
 73
    0
 40
0
  0
LTYPE
  2
DASHDOT2
 70
   64
  3
--------        -        -------
 72
   65
 73
    0
 40
0
  0
LTYPE
  2
DASHDOTX2
 70
   64
  3
--------        -        -------
 72
   65
 73
    0
 40
0
  0
LTYPE
  2
DASHED
 70
   64
  3
------     -----------     -----
 72
   65
 73
    0
 40
0
  0
LTYPE
  2
DASHED2_27
 70
   64
  3
------     -----------     -----
 72
   65
 73
    0
 40
0
  0
LTYPE
  2
DASHEDX2
 70
   64
  3
------     -----------     -----
 72
   65
 73
    0
 40
0
  0
LTYPE
  2
DIVIDE
 70
   64
  3
------      -      -      ------
 72
   65
 73
    0
 40
0
  0
LTYPE
  2
DIVIDE2
 70
   64
  3
------      -      -      ------
 72
   65
 73
    0
 40
0
  0
LTYPE
  2
DIVIDEX2
 70
   64
  3
------      -      -      ------
 72
   65
 73
    0
 40
0
  0
LTYPE
  2
DOT_32
 70
   64
  3
-               -               
 72
   65
 73
    0
 40
0
  0
ENDTAB
  0
TABLE
  2
STYLE
  5
3
100
AcDbSymbolTable
 70
     1
  0
STYLE
  5
10
100
AcDbSymbolTableRecord
100
AcDbTextStyleTableRecord
  2
STANDARD
 70
     0
 40
0.0
 41
1.0
 50
0.0
 71
     0
 42
0.2
  3
txt
  4
bigfont.shx
  0
STYLE
  5
26
100
AcDbSymbolTableRecord
100
AcDbTextStyleTableRecord
  2
TATEGAKI
 70
    68
 40
0.0
 41
1.0
 50
0.0
 71
     0
 42
1.0
  3
txt
  4
bigfont.shx
  0
ENDTAB
  0
TABLE
  2
LAYER
 70
    2
  0
LAYER
  2
_0-0_0
 70
   64
 62
    7
  6
CONTINUOUS
  0
LAYER
  2
ADD_LINE
 70
   64
 62
    7
  6
CONTINUOUS
  0
ENDTAB
  0
ENDSEC
  0
SECTION
  2
BLOCKS
  0
ENDSEC
  0
SECTION
  2
ENTITIES
  0
ARC
  8
_0-0_0
  6
CONTINUOUS
 62
    7
 10
247.81347700000001
 20
179.10589950000002
 40
114.26615
 50
247.08441500000004
 51
279.74206300000003
  0
LINE
  8
_0-0_0
  6
CONTINUOUS
 62
    7
 10
203.32113800000002
 20
73.857696500000003
 11
190.62845800000002
 21
79.5983655
  0
ARC
  8
_0-0_0
  6
CONTINUOUS
 62
    7
 10
145.13453100000001
 20
1.1738804999999957
 40
90.664755
 50
59.882044000000008
 51
89.769729999999996
  0
ARC
  8
_0-0_0
  6
CONTINUOUS
 62
    7
 10
145.819636
 20
100.12153550000001
 40
8.2898409999999991
 50
157.122805
 51
267.78273000000002
  0
ARC
  8
_0-0_0
  6
CONTINUOUS
 62
    7
 10
135.23437000000001
 20
106.41983350000001
 40
4.2599140000000002
 50
313.78203200000002
 51
71.24472700000004
  0
ARC
  8
_0-0_0
  6
CONTINUOUS
 62
    7
 10
143.04931100000002
 20
123.9861205
 40
14.989062000000001
 50
191.29985600000003
 51
244.53257500000004
  0
ARC
  8
_0-0_0
  6
CONTINUOUS
 62
    7
 10
139.43629900000002
 20
123.7014985
 40
11.398388000000001
 50
119.797335
 51
193.45600499999998
  0
ARC
  8
_0-0_0
  6
CONTINUOUS
 62
    7
 10
151.74058600000001
 20
103.77151550000001
 40
34.816409
 50
98.092061000000015
 51
121.07058499999999
  0
ARC
  8
_0-0_0
  6
CONTINUOUS
 62
    7
 10
147.18847300000002
 20
142.01383250000001
 40
3.7886579999999999
 50
264.71784200000002
 51
355.66633600000006
  0
ARC
  8
_0-0_0
  6
CONTINUOUS
 62
    7
 10
-87.982898999999975
 20
170.1906415
 40
240.63845699999999
 50
353.20706200000001
 51
359.62414000000001
  0
ARC
  8
_0-0_0
  6
CONTINUOUS
 62
    7
 10
214.00901400000001
 20
162.2661895
 40
61.685915000000001
 50
151.179047
 51
174.09530900000001
  0
ARC
  8
_0-0_0
  6
CONTINUOUS
 62
    7
 10
80.585395000000005
 20
244.45223650000003
 40
95.141279999999995
 50
326.54558300000008
 51
345.98292900000007
  0
ARC
  8
_0-0_0
  6
CONTINUOUS
 62
    7
 10
183.552018
 20
215.30749750000001
 40
12.280689000000001
 50
64.897817000000003
 51
150.214552
  0
ARC
  8
_0-0_0
  6
CONTINUOUS
 62
    7
 10
190.11515900000001
 20
228.94279749999998
 40
2.8555139999999999
 50
241.711611
 51
8.2434780000000334
  0
ARC
  8
_0-0_0
  6
CONTINUOUS
 62
    7
 10
205.57494200000002
 20
224.7913805
 40
13.431808999999999
 50
46.522069000000009
 51
160.15021999999999
  0
ARC
  8
_0-0_0
  6
CONTINUOUS
 62
    7
 10
255.404099
 20
264.45485650000001
 40
50.421486000000002
 50
216.39402000000001
 51
250.83091200000001
  0
ARC
  8
_0-0_0
  6
CONTINUOUS
 62
    7
 10
262.53164200000003
 20
259.57178650000003
 40
48.865766000000001
 50
241.00911099999999
 51
268.75770899999998
  0
ARC
  8
_0-0_0
  6
CONTINUOUS
 62
    7
 10
281.92722700000002
 20
214.73128050000003
 40
20.845085000000001
 50
191.10178099999999
 51
249.08514199999999
  0
ARC
  8
_0-0_0
  6
CONTINUOUS
 62
    7
 10
79.849009999999993
 20
117.9746655
 40
209.41943000000001
 50
17.117579000000003
 51
21.656667000000002
  0
ARC
  8
_0-0_0
  6
CONTINUOUS
 62
    7
 10
243.60151000000002
 20
166.82564150000002
 40
38.571845000000003
 50
346.12836000000004
 51
19.362405000000066
  0
ARC
  8
_0-0_0
  6
CONTINUOUS
 62
    7
 10
268.554554
 20
161.4480245
 40
13.079473999999999
 50
269.42809499999998
 51
342.79003699999998
  0
ARC
  8
_0-0_0
  6
CONTINUOUS
 62
    7
 10
221.240037
 20
157.23366950000002
 40
48.009428999999997
 50
349.35983199999998
 51
91.764718000000045
  0
ARC
  8
_0-0_0
  6
CONTINUOUS
 62
    7
 10
219.75676100000001
 20
152.6446875
 40
52.575645000000002
 50
89.994757000000007
 51
191.338324
  0
ARC
  8
_0-0_0
  6
CONTINUOUS
 62
    7
 10
193.93982800000001
 20
115.1968715
 40
37.379032000000002
 50
51.269767000000002
 51
133.505459
  0
ARC
  8
_0-0_0
  6
CONTINUOUS
 62
    7
 10
210.80667199999999
 20
135.46107950000001
 40
11.028518999999999
 50
285.88106499999998
 51
53.761398999999997
  0
ARC
  8
_0-0_0
  6
CONTINUOUS
 62
    7
 10
222.08427499999999
 20
89.061530500000003
 40
36.732661999999998
 50
102.994704
 51
124.68750799999999
  0
ARC
  8
_0-0_0
  6
CONTINUOUS
 62
    7
 10
197.07189299999999
 20
116.01218650000001
 40
5.2401450000000001
 50
271.66503699999998
 51
38.379588000000027
  0
ARC
  8
_0-0_0
  6
CONTINUOUS
 62
    7
 10
193.67890299999999
 20
104.8475595
 40
6.9061209999999997
 50
59.112842000000001
 51
197.932885
  0
ARC
  8
_0-0_0
  6
CONTINUOUS
 62
    7
 10
204.30401699999999
 20
113.00974550000001
 40
20.038667
 50
210.89304600000003
 51
258.01296400000007
  0
ARC
  8
_0-0_0
  6
CONTINUOUS
 62
    7
 10
176.722071
 20
65.856521499999999
 40
36.160575000000001
 50
32.527344999999997
 51
49.633853999999999
  0
ARC
  8
_0-0_0
  6
CONTINUOUS
 62
    7
 10
242.03473
 20
138.07188050000002
 40
63.226550000000003
 50
236.57892900000002
 51
266.764048
  0
ARC
  8
_0-0_0
  6
CONTINUOUS
 62
    7
 10
212.55740500000002
 20
389.08989050000002
 40
315.21029199999998
 50
274.71466199999998
 51
279.42194599999999
  0
CIRCLE
  8
_0-0_0
  6
CONTINUOUS
 62
    7
 10
181.579981
 20
217.54825149999999
 40
6.7950169999999996
  0
CIRCLE
  8
_0-0_0
  6
CONTINUOUS
 62
    7
 10
205.04882900000001
 20
227.14203150000003
 40
8.8867290000000008
  0
ARC
  8
_0-0_0
  6
CONTINUOUS
 62
    7
 10
194.71085500000001
 20
120.2547515
 40
30.818641
 50
51.191744999999997
 51
204.927573
  0
ARC
  8
_0-0_0
  6
CONTINUOUS
 62
    7
 10
199.95143999999999
 20
114.65549350000001
 40
29.897736999999999
 50
60.974027999999997
 51
218.989757
  0
ARC
  8
_0-0_0
  6
CONTINUOUS
 62
    7
 10
205.8519
 20
109.31266650000001
 40
27.753451999999999
 50
71.229282999999995
 51
193.596193
  0
ARC
  8
_0-0_0
  6
CONTINUOUS
 62
    7
 10
194.02201200000002
 20
106.6592325
 40
14.461567000000001
 50
64.314175000000006
 51
234.81862499999997
  0
ARC
  8
_0-0_0
  6
CONTINUOUS
 62
    7
 10
204.015558
 20
139.0312165
 40
52.502730999999997
 50
180.36518799999999
 51
230.85727900000001
  0
ARC
  8
_0-0_0
  6
CONTINUOUS
 62
    7
 10
198.159921
 20
141.37841450000002
 40
52.190601000000001
 50
186.67058599999999
 51
223.79942600000001
  0
LINE
  8
_0-0_0
  6
CONTINUOUS
 62
    7
 10
144.91666599999999
 20
134.21947950000001
 11
144.592219
 21
132.84894250000002
  0
LINE
  8
_0-0_0
  6
CONTINUOUS
 62
    7
 10
144.26775600000002
 20
131.47840550000001
 11
143.943308
 21
129.37691150000001
  0
LINE
  8
_0-0_0
  6
CONTINUOUS
 62
    7
 10
143.943308
 20
127.36678950000001
 11
144.26775600000002
 21
124.2602335
  0
LINE
  8
_0-0_0
  6
CONTINUOUS
 62
    7
 10
145.349268
 20
120.05724950000001
 11
145.99817899999999
 21
118.32123050000001
  0
LINE
  8
_0-0_0
  6
CONTINUOUS
 62
    7
 10
147.079691
 20
117.3161685
 11
158.435587
 21
106.2604855
  0
ARC
  8
_0-0_0
  6
CONTINUOUS
 62
    7
 10
141.078654
 20
122.02347850000001
 40
8.9584580000000003
 50
109.39914000000002
 51
240.71925300000001
  0
LINE
  8
_0-0_0
  6
CONTINUOUS
 62
    7
 10
137.67052699999999
 20
114.20961250000001
 11
154.001383
 21
103.79351750000001
  0
LINE
  8
_0-0_0
  6
CONTINUOUS
 62
    7
 10
138.427592
 20
130.1078685
 11
137.67052699999999
 21
126.63583250000001
  0
LINE
  8
_0-0_0
  6
CONTINUOUS
 62
    7
 10
137.02161599999999
 20
123.5292805
 11
137.02161599999999
 21
120.4227245
  0
LINE
  8
_0-0_0
  6
CONTINUOUS
 62
    7
 10
137.02161599999999
 20
119.6917715
 11
138.103129
 21
116.95069050000001
  0
LINE
  8
_0-0_0
  6
CONTINUOUS
 62
    7
 10
138.427592
 20
116.5852115
 11
146.322642
 21
109.73252050000001
  0
ARC
  8
_0-0_0
  6
CONTINUOUS
 62
    7
 10
-14.880466000000013
 20
-271.55670649999996
 40
408.25103200000001
 50
60.504779999999997
 51
67.467563999999996
  0
ARC
  8
_0-0_0
  6
CONTINUOUS
 62
    7
 10
218.58670899999998
 20
152.67029250000002
 40
64.973928999999998
 50
17.857489000000005
 51
171.50374100000002
  0
ARC
  8
_0-0_0
  6
CONTINUOUS
 62
    7
 10
203.263734
 20
220.79187350000001
 40
11.368335999999999
 50
154.02203600000001
 51
205.97800100000003
  0
LINE
  8
_0-0_0
  6
CONTINUOUS
 62
    7
 10
171.954508
 20
208.1372255
 11
174.00939400000001
 21
208.8681675
  0
LINE
  8
_0-0_0
  6
CONTINUOUS
 62
    7
 10
170.224085
 20
200.91904049999999
 11
169.791483
 21
204.75656450000002
  0
LINE
  8
_0-0_0
  6
CONTINUOUS
 62
    7
 10
164.275766
 20
191.96486250000001
 11
168.16921400000001
 21
201.64999749999998
  0
LINE
  8
_0-0_0
  6
CONTINUOUS
 62
    7
 10
157.35407499999999
 20
177.8026165
 11
162.545343
 21
192.96991350000002
  0
LINE
  8
_0-0_0
  6
CONTINUOUS
 62
    7
 10
270.37226500000003
 20
149.75225449999999
 11
270.69672000000003
 21
158.43233850000001
  0
LINE
  8
_0-0_0
  6
CONTINUOUS
 62
    7
 10
270.69672000000003
 20
160.16835450000002
 11
266.58696400000002
 21
177.43714549999999
  0
LINE
  8
_0-0_0
  6
CONTINUOUS
 62
    7
 10
266.26250900000002
 20
178.80768950000001
 11
261.39569900000004
 21
184.3812135
  0
LINE
  8
_0-0_0
  6
CONTINUOUS
 62
    7
 10
263.12611800000002
 20
186.7568095
 11
253.50064900000001
 21
196.8074225
  0
LINE
  8
_0-0_0
  6
CONTINUOUS
 62
    7
 10
251.01316500000001
 20
198.54344550000002
 11
245.17299
 21
201.28451849999999
  0
LINE
  8
_0-0_0
  6
CONTINUOUS
 62
    7
 10
243.11811499999999
 20
202.28958449999999
 11
234.466004
 21
205.76163050000002
  0
LINE
  8
_0-0_0
  6
CONTINUOUS
 62
    7
 10
239.65726900000001
 20
205.3961515
 11
226.89541000000003
 21
207.86311649999999
  0
LINE
  8
_0-0_0
  6
CONTINUOUS
 62
    7
 10
226.462808
 20
208.8681675
 11
213.37648899999999
 21
206.7666815
  0
LINE
  8
_0-0_0
  6
CONTINUOUS
 62
    7
 10
214.45800100000002
 20
209.23364550000002
 11
202.66950400000002
 21
204.02560750000001
  0
LINE
  8
_0-0_0
  6
CONTINUOUS
 62
    7
 10
202.99395100000001
 20
207.86311649999999
 11
181.25553300000001
 21
198.54344550000002
  0
LINE
  8
_0-0_0
  6
CONTINUOUS
 62
    7
 10
189.90763200000001
 20
199.54851150000002
 11
175.41535400000001
 21
186.39133050000001
  0
LINE
  8
_0-0_0
  6
CONTINUOUS
 62
    7
 10
161.896433
 20
113.20455050000001
 11
159.84156200000001
 21
121.4277865
  0
LINE
  8
_0-0_0
  6
CONTINUOUS
 62
    7
 10
161.247522
 20
121.1536775
 11
160.49045800000002
 21
131.47840550000001
  0
LINE
  8
_0-0_0
  6
CONTINUOUS
 62
    7
 10
160.814921
 20
135.31591450000002
 11
161.247522
 21
144.90968750000002
  0
LINE
  8
_0-0_0
  6
CONTINUOUS
 62
    7
 10
161.896433
 20
148.01623950000001
 11
163.30240800000001
 21
155.69125750000001
  0
LINE
  8
_0-0_0
  6
CONTINUOUS
 62
    7
 10
160.16601
 20
148.01623950000001
 11
160.814921
 21
155.96536650000002
  0
LINE
  8
_0-0_0
  6
CONTINUOUS
 62
    7
 10
162.545343
 20
163.91449349999999
 11
163.30240800000001
 21
168.48295949999999
  0
LINE
  8
_0-0_0
  6
CONTINUOUS
 62
    7
 10
160.49045800000002
 20
166.74694449999998
 11
166.43879100000001
 21
178.8076815
  0
LINE
  8
_0-0_0
  6
CONTINUOUS
 62
    7
 10
166.00618900000001
 20
167.02105349999999
 11
170.872995
 21
178.8076815
  0
LINE
  8
_0-0_0
  6
CONTINUOUS
 62
    7
 10
223.52588800000001
 20
224.5412015
 11
215.80875500000002
 21
224.43933450000003
  0
LINE
  8
_0-0_0
  6
CONTINUOUS
 62
    7
 10
219.18500599999999
 20
226.5531345
 11
216.019777
 21
226.17111549999998
  0
LINE
  8
_0-0_0
  6
CONTINUOUS
 62
    7
 10
216.29108500000001
 20
230.50055250000003
 11
214.452234
 21
229.63467750000001
  0
LINE
  8
_0-0_0
  6
CONTINUOUS
 62
    7
 10
214.66324700000001
 20
232.91995550000001
 11
212.55309399999999
 21
232.15594750000002
  0
LINE
  8
_0-0_0
  6
CONTINUOUS
 62
    7
 10
211.37743499999999
 20
234.16788050000002
 11
211.95018900000002
 21
235.61950949999999
  0
LINE
  8
_0-0_0
  6
CONTINUOUS
 62
    7
 10
209.176851
 20
235.61950949999999
 11
209.44815199999999
 21
236.58728350000001
  0
LINE
  8
_0-0_0
  6
CONTINUOUS
 62
    7
 10
207.33799900000002
 20
236.17978149999999
 11
207.729883
 21
237.83517749999999
  0
LINE
  8
_0-0_0
  6
CONTINUOUS
 62
    7
 10
202.333932
 20
236.17978149999999
 11
201.76116300000001
 21
237.52957450000002
  0
LINE
  8
_0-0_0
  6
CONTINUOUS
 62
    7
 10
201.067834
 20
235.31390650000003
 11
200.40464200000002
 21
236.7655365
  0
LINE
  8
_0-0_0
  6
CONTINUOUS
 62
    7
 10
197.812173
 20
232.6143525
 11
196.546075
 21
233.68399349999999
  0
LINE
  8
_0-0_0
  6
CONTINUOUS
 62
    7
 10
196.93796700000001
 20
231.46832549999999
 11
194.707223
 21
232.0540805
  0
LINE
  8
_0-0_0
  6
CONTINUOUS
 62
    7
 10
195.88288299999999
 20
227.62274450000001
 11
193.47127699999999
 21
228.48865050000001
  0
LINE
  8
_0-0_0
  6
CONTINUOUS
 62
    7
 10
211.95018900000002
 20
220.97577250000001
 11
220.812837
 21
219.14212350000003
  0
LINE
  8
_0-0_0
  6
CONTINUOUS
 62
    7
 10
189.13039600000002
 20
225.40709249999998
 11
187.50255700000002
 21
222.80942049999999
  0
LINE
  8
_0-0_0
  6
CONTINUOUS
 62
    7
 10
185.18139100000002
 20
223.85357950000002
 11
185.754144
 21
225.78909650000003
  0
LINE
  8
_0-0_0
  6
CONTINUOUS
 62
    7
 10
181.62427700000001
 20
224.64306950000002
 11
181.71471600000001
 21
226.37485049999998
  0
LINE
  8
_0-0_0
  6
CONTINUOUS
 62
    7
 10
177.012079
 20
223.1914395
 11
176.31875000000002
 21
224.15918249999999
  0
LINE
  8
_0-0_0
  6
CONTINUOUS
 62
    7
 10
173.33439100000001
 20
221.2559085
 11
175.56511900000001
 21
220.87390450000001
  0
LINE
  8
_0-0_0
  6
CONTINUOUS
 62
    7
 10
174.690912
 20
214.04864850000001
 11
172.18886800000001
 21
209.79559649999999
  0
LINE
  8
_0-0_0
  6
CONTINUOUS
 62
    7
 10
173.635828
 20
216.9264555
 11
172.580759
 21
216.7481875
  0
LINE
  8
_0-0_0
  6
CONTINUOUS
 62
    7
 10
189.341409
 20
216.44256949999999
 11
189.703149
 21
218.2762175
  0
LINE
  8
_0-0_0
  6
CONTINUOUS
 62
    7
 10
222.259805
 20
217.13019150000002
 11
212.432512
 21
216.34070150000002
  0
LINE
  8
_0-0_0
  6
CONTINUOUS
 62
    7
 10
207.03654599999999
 20
215.78042950000003
 11
202.42435599999999
 21
214.43065150000001
  0
LINE
  8
_0-0_0
  6
CONTINUOUS
 62
    7
 10
207.33799900000002
 20
214.71078850000001
 11
203.78088500000001
 21
213.18275750000001
  0
LINE
  8
_0-0_0
  6
CONTINUOUS
 62
    7
 10
194.61678499999999
 20
212.3168675
 11
188.55764199999999
 21
209.03157350000001
  0
LINE
  8
_0-0_0
  6
CONTINUOUS
 62
    7
 10
207.21185400000002
 20
83.418170500000002
 11
200.61463300000003
 21
86.890200500000006
  0
LINE
  8
_0-0_0
  6
CONTINUOUS
 62
    7
 10
199.85756800000001
 20
88.260741499999995
 11
190.88100600000001
 21
95.570281500000007
  0
LINE
  8
_0-0_0
  6
CONTINUOUS
 62
    7
 10
189.58318500000001
 20
92.737834500000005
 11
185.365274
 21
98.311362500000001
  0
LINE
  8
_0-0_0
  6
CONTINUOUS
 62
    7
 10
195.09890100000001
 20
114.20961250000001
 11
190.88100600000001
 21
113.20455050000001
  0
LINE
  8
_0-0_0
  6
CONTINUOUS
 62
    7
 10
190.23209500000002
 20
113.47865950000001
 11
186.77124900000001
 21
109.3670415
  0
LINE
  8
_0-0_0
  6
CONTINUOUS
 62
    7
 10
185.68973700000001
 20
107.9965045
 11
185.365274
 21
103.79351750000001
  0
LINE
  8
_0-0_0
  6
CONTINUOUS
 62
    7
 10
214.02539200000001
 20
125.90488350000001
 11
215.43136000000001
 21
127.0013115
  0
LINE
  8
_0-0_0
  6
CONTINUOUS
 62
    7
 10
216.188424
 20
127.64089850000001
 11
219.21666099999999
 21
131.11292750000001
  0
LINE
  8
_0-0_0
  6
CONTINUOUS
 62
    7
 10
219.97371800000002
 20
132.4834635
 11
219.97371800000002
 21
135.95549450000001
  0
LINE
  8
_0-0_0
  6
CONTINUOUS
 62
    7
 10
219.97371800000002
 20
136.96056050000001
 11
217.918847
 21
142.53408450000001
  0
LINE
  8
_0-0_0
  6
CONTINUOUS
 62
    7
 10
210.99715500000002
 20
125.6307745
 11
205.80588700000001
 21
123.5292805
  0
LINE
  8
_0-0_0
  6
CONTINUOUS
 62
    7
 10
204.39991900000001
 20
122.5242145
 11
202.02059300000002
 21
121.4277865
  0
LINE
  8
_0-0_0
  6
CONTINUOUS
 62
    7
 10
211.97052100000002
 20
129.7423905
 11
208.18522000000002
 21
130.1078685
  0
LINE
  8
_0-0_0
  6
CONTINUOUS
 62
    7
 10
205.80588700000001
 20
129.7423905
 11
198.55974700000002
 21
128.37184550000001
  0
LINE
  8
_0-0_0
  6
CONTINUOUS
 62
    7
 10
195.42336399999999
 20
128.37184550000001
 11
191.31360799999999
 21
124.2602335
  0
LINE
  8
_0-0_0
  6
CONTINUOUS
 62
    7
 10
201.26352800000001
 20
131.11292750000001
 11
193.04403100000002
 21
129.1028025
  0
LINE
  8
_0-0_0
  6
CONTINUOUS
 62
    7
 10
186.77124900000001
 20
124.5343385
 11
183.31040400000001
 21
119.6917715
  0
LINE
  8
_0-0_0
  6
CONTINUOUS
 62
    7
 10
264.15848199999999
 20
78.131911500000001
 11
267.148777
 21
66.487525500000004
  0
ARC
  8
_0-0_0
  6
CONTINUOUS
 62
    7
 10
255.40418765088324
 20
264.45498601038713
 40
50.421623780007195
 50
216.39407027610974
 51
250.83086404233279
  0
ARC
  8
_0-0_0
  6
CONTINUOUS
 62
    7
 10
205.57494404476495
 20
224.79139866540828
 40
13.431804986671244
 50
46.522045316293976
 51
160.15024315195706
  0
ARC
  8
_0-0_0
  6
CONTINUOUS
 62
    7
 10
190.11516428401475
 20
228.94280831438687
 40
2.855512956622499
 50
241.71157011437478
 51
8.2435150483782973
  0
ARC
  8
_0-0_0
  6
CONTINUOUS
 62
    7
 10
183.55201774879643
 20
215.3075219372592
 40
12.280680220690716
 50
64.897775379380391
 51
150.21458924885727
  0
ARC
  8
_0-0_0
  6
CONTINUOUS
 62
    7
 10
80.585002322292183
 20
244.45242272414603
 40
95.141706377838986
 50
326.54562060258314
 51
345.98288536161522
  0
ARC
  8
_0-0_0
  6
CONTINUOUS
 62
    7
 10
214.0088224799718
 20
162.26625353142251
 40
61.685719205504235
 50
151.17900245619074
 51
174.09534657293938
  0
ARC
  8
_0-0_0
  6
CONTINUOUS
 62
    7
 10
-87.983794283772056
 20
170.19070473536397
 40
240.63935140439534
 50
353.20707285940921
 51
359.62412696876964
  0
ARC
  8
_0-0_0
  6
CONTINUOUS
 62
    7
 10
147.1884742984648
 20
142.0138330032712
 40
3.7886546099661702
 50
264.71779928117428
 51
355.66637688463373
  0
ARC
  8
_0-0_0
  6
CONTINUOUS
 62
    7
 10
151.74058964240896
 20
103.77150177223359
 40
34.816427241164163
 50
98.092064813787488
 51
121.07057764719227
  0
ARC
  8
_0-0_0
  6
CONTINUOUS
 62
    7
 10
139.43630099959614
 20
123.70150177235341
 40
11.398390312899679
 50
119.79734594158076
 51
193.45600083830149
  0
ARC
  8
_0-0_0
  6
CONTINUOUS
 62
    7
 10
143.04929158396791
 20
123.98610958378229
 40
14.989040734528478
 50
191.29981424093361
 51
244.53259199037853
  0
ARC
  8
_0-0_0
  6
CONTINUOUS
 62
    7
 10
135.23436895358185
 20
106.41983712365601
 40
4.2599139169919749
 50
313.78192135632065
 51
71.244792889919438
  0
ARC
  8
_0-0_0
  6
CONTINUOUS
 62
    7
 10
145.81963330107391
 20
100.1215385536112
 40
8.2898398486963458
 50
157.12283153126731
 51
267.78233811168997
  0
ARC
  8
_0-0_0
  6
CONTINUOUS
 62
    7
 10
145.13448683099267
 20
1.1737241400133769
 40
90.664915516317208
 50
59.882047124804131
 51
89.769739097348591
  0
LINE
  8
_0-0_0
  6
CONTINUOUS
 62
    7
 10
190.628491
 20
79.598353500000002
 11
203.321192
 21
73.857675499999999
  0
ARC
  8
_0-0_0
  6
CONTINUOUS
 62
    7
 10
247.81348581836554
 20
179.10598205540771
 40
114.26622528989414
 50
247.08444838103054
 51
279.74204423087508
  0
LINE
  8
_0-0_0
  6
CONTINUOUS
 62
    7
 10
267.148777
 20
66.487525500000004
 11
264.158478
 21
78.131927500000003
  0
ARC
  8
_0-0_0
  6
CONTINUOUS
 62
    7
 10
212.55692850080297
 20
389.09372377742221
 40
315.21414729481779
 50
274.71468864671971
 51
279.42190622479893
  0
ARC
  8
_0-0_0
  6
CONTINUOUS
 62
    7
 10
242.03473833129186
 20
138.07191701445544
 40
63.226582331088082
 50
236.57892695566315
 51
266.76397407870786
  0
ARC
  8
_0-0_0
  6
CONTINUOUS
 62
    7
 10
176.72201977533359
 20
65.856483256169582
 40
36.160639711776469
 50
32.527364960686121
 51
49.633839195826035
  0
ARC
  8
_0-0_0
  6
CONTINUOUS
 62
    7
 10
204.30402019358178
 20
113.00975650174831
 40
20.038674631578601
 50
210.89310236200626
 51
258.01296827776974
  0
ARC
  8
_0-0_0
  6
CONTINUOUS
 62
    7
 10
193.67890046213796
 20
104.84756539984525
 40
6.9061204427764764
 50
59.112821790544672
 51
197.93298544553028
  0
ARC
  8
_0-0_0
  6
CONTINUOUS
 62
    7
 10
197.07189197544776
 20
116.01219124376317
 40
5.2401452788317817
 50
271.66504635975872
 51
38.379656092997806
  0
ARC
  8
_0-0_0
  6
CONTINUOUS
 62
    7
 10
222.08432786865842
 20
89.061413750000781
 40
36.732791501987649
 50
102.99474084041236
 51
124.68745421973543
  0
ARC
  8
_0-0_0
  6
CONTINUOUS
 62
    7
 10
210.80667123509329
 20
135.46108352991888
 40
11.028518599887331
 50
285.88108030675028
 51
53.76033053295432
  0
ARC
  8
_0-0_0
  6
CONTINUOUS
 62
    7
 10
193.93982661487286
 20
115.19689252808719
 40
37.379019206356837
 50
51.269445792582047
 51
133.50548117320383
  0
ARC
  8
_0-0_0
  6
CONTINUOUS
 62
    7
 10
219.75677790515812
 20
152.64467683769664
 40
52.575659892611206
 50
89.994637100779869
 51
191.33830479596386
  0
ARC
  8
_0-0_0
  6
CONTINUOUS
 62
    7
 10
221.24003326607465
 20
157.23367096502506
 40
48.009431795927377
 50
349.3598520406286
 51
91.764563800277969
  0
ARC
  8
_0-0_0
  6
CONTINUOUS
 62
    7
 10
268.55454427452617
 20
161.44804115987256
 40
13.079486136955383
 50
269.42813480728933
 51
342.78998318219425
  0
ARC
  8
_0-0_0
  6
CONTINUOUS
 62
    7
 10
243.60156697488341
 20
166.82564952758446
 40
38.571789502788874
 50
346.12834366302144
 51
19.362851548259265
  0
ARC
  8
_0-0_0
  6
CONTINUOUS
 62
    7
 10
79.851340431471499
 20
117.97548877588662
 40
209.4169611873983
 50
17.117630271048192
 51
21.656695891010724
  0
ARC
  8
_0-0_0
  6
CONTINUOUS
 62
    7
 10
281.92722578783582
 20
214.73128457138111
 40
20.845084287336356
 50
191.10176313003251
 51
249.08509648705586
  0
LINE
  8
_0-0_0
  6
CONTINUOUS
 62
    7
 10
261.47222099999999
 20
210.71751849999998
 11
238.84784999999999
 21
216.8290705
  0
ENDSEC
  0
EOF
