  0
SECTION
  2
HEADER
  9
$ACADVER
  1
AC1009
  9
$INSBASE
 10
0
 20
0
 30
0
  9
$EXTMIN
 10
0
 20
0
  9
$EXTMAX
 10
420
 20
297
  9
$LIMMIN
 10
0
 20
0
  9
$LIMMAX
 10
420
 20
297
  9
$LTSCALE
 40
1
  0
ENDSEC
  0
SECTION
  2
TABLES
  0
TABLE
  2
LTYPE
 70
     9
  0
LTYPE
  2
CONTINUOUS
 70
    64
  3
実線
 72
    65
 73
     0
 40
0.0
  0
LTYPE
  2
DASHED1
 70
    64
  3
--  --  --  --  --  --  --  --  
 72
    65
 73
     2
 40
2.5
 49
1.25
 49
-1.25
  0
LTYPE
  2
DASHED2
 70
    64
  3
----    ----    ----    ----    
 72
    65
 73
     2
 40
5.0
 49
2.5
 49
-2.5
  0
LTYPE
  2
DASHED3
 70
    64
  3
------  ------  ------  ------  
 72
    65
 73
     2
 40
5.0
 49
3.75
 49
-1.25
  0
LTYPE
  2
CENTER1
 70
    64
  3
----- - ----- - ----- - ----- - 
 72
    65
 73
     4
 40
10.0
 49
6.25
 49
-1.25
 49
1.25
 49
-1.25
  0
LTYPE
  2
CENTER2
 70
    64
  3
----------  --  ----------  --  
 72
    65
 73
     4
 40
20.0
 49
12.5
 49
-2.5
 49
2.5
 49
-2.5
  0
LTYPE
  2
PHANTOM1
 70
    64
  3
--- - - --- - - --- - - --- - - 
 72
    65
 73
     6
 40
10.0
 49
3.25
 49
-1.25
 49
1.25
 49
-1.25
 49
1.25
 49
-1.25
  0
LTYPE
  2
PHANTOM2
 70
    64
  3
--------  -  -  --------  -  -  
 72
    65
 73
     6
 40
20.0
 49
10.0
 49
-2.5
 49
1.25
 49
-2.5
 49
1.25
 49
-2.5
  0
LTYPE
  2
DOT
 70
    64
  3
-   -   -   -   -   -   -   -   
 72
    65
 73
     2
 40
2.5
 49
0.625
 49
-1.875
  0
LTYPE
  2
DUMMY
 70
    64
  3
ダミー
 72
    65
 73
     0
 40
0.0
  0
LTYPE
  2
RAND1
 70
    64
  3
ランダム線1
 72
    65
 73
     4
 40
10.0
 49
1.0
 49
-2.0
 49
3.0
 49
-4.0
  0
LTYPE
  2
RAND2
 70
    64
  3
ランダム線2
 72
    65
 73
     4
 40
14.0
 49
2.0
 49
-3.0
 49
4.0
 49
-5.0
  0
LTYPE
  2
RAND3
 70
    64
  3
ランダム線3
 72
    65
 73
     4
 40
18.0
 49
3.0
 49
-4.0
 49
5.0
 49
-6.0
  0
LTYPE
  2
RAND4
 70
    64
  3
ランダム線4
 72
    65
 73
     4
 40
22.0
 49
4.0
 49
-5.0
 49
6.0
 49
-7.0
  0
LTYPE
  2
RAND5
 70
    64
  3
ランダム線5
 72
    65
 73
     4
 40
26.0
 49
5.0
 49
-6.0
 49
7.0
 49
-8.0
  0
LTYPE
  2
LONG1
 70
    64
  3
----------  --  ----------  --  
 72
    65
 73
     4
 40
40.0
 49
32.5
 49
-2.5
 49
2.5
 49
-2.5
  0
LTYPE
  2
LONG2
 70
    64
  3
--------  -  -  --------  -  -  
 72
    65
 73
     6
 40
40.0
 49
30.0
 49
-2.5
 49
1.25
 49
-2.5
 49
1.25
 49
-2.5
  0
LTYPE
  2
LONG3
 70
    64
  3
+++++++++++++++..+++++++++++++++
 72
    65
 73
     2
 40
40.0
 49
37.5
 49
-2.5
  0
LTYPE
  2
LONG4
 70
    64
  3
+++++++++++++++..+++++++++++++++
 72
    65
 73
     2
 40
80.0
 49
75.0
 49
-5.0
  0
LTYPE
  2
LONG5
 70
    64
  3
----------  --  ----------  --  
 72
    65
 73
     4
 40
60.0
 49
37.5
 49
-7.5
 49
7.5
 49
-7.5
  0
LTYPE
  2
dashed
 70
   64
  3
-------   -------------   ------
 72
   65
 73
    2
 40
7.5
 49
6
 49
-1.5
  0
LTYPE
  2
dashed_spaced
 70
   64
  3
----        --------        ----
 72
   65
 73
    2
 40
12
 49
6
 49
-6
  0
LTYPE
  2
long_dashed_dotted
 70
   64
  3
------------- --- --------------
 72
   65
 73
    4
 40
15.25
 49
12
 49
-1.5
 49
0.25
 49
-1.5
  0
LTYPE
  2
long_dashed_double-dotted
 70
   64
  3
----------- --- --- ------------
 72
   65
 73
    6
 40
17
 49
12
 49
-1.5
 49
0.25
 49
-1.5
 49
0.25
 49
-1.5
  0
LTYPE
  2
long_dashed_triplicate-dotted
 70
   64
  3
--------- --- --- --- ----------
 72
   65
 73
    8
 40
18.75
 49
12
 49
-1.5
 49
0.25
 49
-1.5
 49
0.25
 49
-1.5
 49
0.25
 49
-1.5
  0
LTYPE
  2
dotted
 70
   64
  3
   -       -       -       -    
 72
   65
 73
    2
 40
1.75
 49
0.25
 49
-1.5
  0
LTYPE
  2
chain
 70
   64
  3
-------------- -- --------------
 72
   65
 73
    4
 40
18.5
 49
12
 49
-1.5
 49
3.5
 49
-1.5
  0
LTYPE
  2
chain_double_dash
 70
   64
  3
------------ -- -- -------------
 72
   65
 73
    6
 40
23.5
 49
12
 49
-1.5
 49
3.5
 49
-1.5
 49
3.5
 49
-1.5
  0
LTYPE
  2
dashed_dotted
 70
   64
  3
-----------     -     ----------
 72
   65
 73
    4
 40
9.25
 49
6
 49
-1.5
 49
0.25
 49
-1.5
  0
LTYPE
  2
double-dashed_dotted
 70
   64
  3
------   -----------   -   -----
 72
   65
 73
    6
 40
16.75
 49
6
 49
-1.5
 49
6
 49
-1.5
 49
0.25
 49
-1.5
  0
LTYPE
  2
dashed_double-dotted
 70
   64
  3
---------    -    -    ---------
 72
   65
 73
    6
 40
11
 49
6
 49
-1.5
 49
0.25
 49
-1.5
 49
0.25
 49
-1.5
  0
LTYPE
  2
double-dashed_double-dotted
 70
   64
  3
-----   ---------   -   -   ----
 72
   65
 73
    8
 40
18.5
 49
6
 49
-1.5
 49
6
 49
-1.5
 49
0.25
 49
-1.5
 49
0.25
 49
-1.5
  0
LTYPE
  2
dashed_triplicate-dotted
 70
   64
  3
-------    -    -    -    ------
 72
   65
 73
    8
 40
12.75
 49
6
 49
-1.5
 49
0.25
 49
-1.5
 49
0.25
 49
-1.5
 49
0.25
 49
-1.5
  0
LTYPE
  2
double-dashed_triplicate-dotted
 70
   64
  3
-----  ---------  -  -  -  -----
 72
   65
 73
   10
 40
20.25
 49
6
 49
-1.5
 49
6
 49
-1.5
 49
0.25
 49
-1.5
 49
0.25
 49
-1.5
 49
0.25
 49
-1.5
  0
LTYPE
  2
undefined
 70
   64
  3
--------------------------------
 72
   65
 73
    0
 40
0
  0
LTYPE
  2
BORDER
 70
   64
  3
----     --------     -     ----
 72
   65
 73
    6
 40
1.76
 49
0.5
 49
-0.25
 49
0.5
 49
-0.25
 49
0.01
 49
-0.25
  0
LTYPE
  2
BORDER2
 70
   64
  3
----     --------     -     ----
 72
   65
 73
    6
 40
0.885
 49
0.25
 49
-0.125
 49
0.25
 49
-0.125
 49
0.01
 49
-0.125
  0
LTYPE
  2
BORDERX2
 70
   64
  3
----     --------     -     ----
 72
   65
 73
    6
 40
3.5099999999999998
 49
1
 49
-0.5
 49
1
 49
-0.5
 49
0.01
 49
-0.5
  0
LTYPE
  2
CENTER
 70
   64
  3
----------    ----    ----------
 72
   65
 73
    4
 40
2
 49
1.25
 49
-0.25
 49
0.25
 49
-0.25
  0
LTYPE
  2
CENTER2_21
 70
   64
  3
----------    ----    ----------
 72
   65
 73
    4
 40
1.125
 49
0.75
 49
-0.125
 49
0.125
 49
-0.125
  0
LTYPE
  2
CENTERX2
 70
   64
  3
----------    ----    ----------
 72
   65
 73
    4
 40
4
 49
2.5
 49
-0.5
 49
0.5
 49
-0.5
  0
LTYPE
  2
DASHDOT
 70
   64
  3
--------        -        -------
 72
   65
 73
    4
 40
1.01
 49
0.5
 49
-0.25
 49
0.01
 49
-0.25
  0
LTYPE
  2
DASHDOT2
 70
   64
  3
--------        -        -------
 72
   65
 73
    4
 40
0.51
 49
0.25
 49
-0.125
 49
0.01
 49
-0.125
  0
LTYPE
  2
DASHDOTX2
 70
   64
  3
--------        -        -------
 72
   65
 73
    4
 40
2.0099999999999998
 49
1
 49
-0.5
 49
0.01
 49
-0.5
  0
LTYPE
  2
DASHED
 70
   64
  3
------     -----------     -----
 72
   65
 73
    2
 40
0.75
 49
0.5
 49
-0.25
  0
LTYPE
  2
DASHED2_27
 70
   64
  3
------     -----------     -----
 72
   65
 73
    2
 40
0.375
 49
0.25
 49
-0.125
  0
LTYPE
  2
DASHEDX2
 70
   64
  3
------     -----------     -----
 72
   65
 73
    2
 40
1.5
 49
1
 49
-0.5
  0
LTYPE
  2
DIVIDE
 70
   64
  3
------      -      -      ------
 72
   65
 73
    6
 40
1.27
 49
0.5
 49
-0.25
 49
0.01
 49
-0.25
 49
0.01
 49
-0.25
  0
LTYPE
  2
DIVIDE2
 70
   64
  3
------      -      -      ------
 72
   65
 73
    6
 40
0.645
 49
0.25
 49
-0.125
 49
0.01
 49
-0.125
 49
0.01
 49
-0.125
  0
LTYPE
  2
DIVIDEX2
 70
   64
  3
------      -      -      ------
 72
   65
 73
    6
 40
2.5199999999999996
 49
1
 49
-0.5
 49
0.01
 49
-0.5
 49
0.01
 49
-0.5
  0
LTYPE
  2
DOT_32
 70
   64
  3
-               -               
 72
   65
 73
    2
 40
0.26
 49
0.01
 49
-0.25
  0
ENDTAB
  0
TABLE
  2
STYLE
  5
3
100
AcDbSymbolTable
 70
     1
  0
STYLE
  5
10
100
AcDbSymbolTableRecord
100
AcDbTextStyleTableRecord
  2
STANDARD
 70
     0
 40
0.0
 41
1.0
 50
0.0
 71
     0
 42
0.2
  3
txt
  4
bigfont.shx
  0
STYLE
  5
26
100
AcDbSymbolTableRecord
100
AcDbTextStyleTableRecord
  2
TATEGAKI
 70
    68
 40
0.0
 41
1.0
 50
0.0
 71
     0
 42
1.0
  3
txt
  4
bigfont.shx
  0
ENDTAB
  0
TABLE
  2
LAYER
 70
    2
  0
LAYER
  2
_0-0_0
 70
   64
 62
    7
  6
CONTINUOUS
  0
LAYER
  2
ADD_LINE
 70
   64
 62
    7
  6
CONTINUOUS
  0
ENDTAB
  0
ENDSEC
  0
SECTION
  2
BLOCKS
  0
ENDSEC
  0
SECTION
  2
ENTITIES
  0
LINE
  8
_0-0_0
  6
CONTINUOUS
 62
    7
 10
199.84837311246395
 20
62.321858999778399
 11
179.84837411246394
 21
96.962879999778409
  0
LINE
  8
_0-0_0
  6
CONTINUOUS
 62
    7
 10
191.18811811246394
 20
57.321858999778399
 11
199.84837311246395
 21
62.321858999778399
  0
LINE
  8
_0-0_0
  6
CONTINUOUS
 62
    7
 10
199.84837311246395
 20
62.321858999778399
 11
179.84837411246394
 21
96.962879999778409
  0
ARC
  8
_0-0_0
  6
CONTINUOUS
 62
    7
 10
192.72018811246394
 20
152.17638099977836
 40
25.585661000000002
 50
33.434946999999987
 51
143.23916199999999
  0
ARC
  8
_0-0_0
  6
CONTINUOUS
 62
    7
 10
189.96426011246393
 20
150.03847199977838
 40
23.481030000000001
 50
73.396905000000004
 51
147.38978600000002
  0
ARC
  8
_0-0_0
  6
CONTINUOUS
 62
    7
 10
183.86742411246394
 20
135.66725599977838
 40
27.319531000000001
 50
45.483185999999989
 51
120.626564
  0
ARC
  8
_0-0_0
  6
CONTINUOUS
 62
    7
 10
245.74972811246394
 20
130.83394299977837
 40
84.729369999999989
 50
105.65725500000001
 51
138.55145300000001
  0
ARC
  8
_0-0_0
  6
CONTINUOUS
 62
    7
 10
193.34616511246395
 20
154.85124699977837
 40
3.9769480000000001
 50
210.13893900000002
 51
304.82109700000001
  0
ARC
  8
_0-0_0
  6
CONTINUOUS
 62
    7
 10
192.72491111246393
 20
153.40529399977839
 40
3.549021999999999
 50
218.04197300000001
 51
329.42729100000003
  0
ARC
  8
_0-0_0
  6
CONTINUOUS
 62
    7
 10
196.30847511246395
 20
159.74544299977839
 40
25.488188000000001
 50
22.571150999999997
 51
94.696044000000001
  0
ARC
  8
_0-0_0
  6
CONTINUOUS
 62
    7
 10
243.21892011246393
 20
124.80119799977838
 40
78.773328000000006
 50
99.255708000000027
 51
128.85448299999999
  0
ARC
  8
_0-0_0
  6
CONTINUOUS
 62
    7
 10
30.273653112463933
 20
306.29060899977839
 40
188.20622599999999
 50
324.43660799999998
 51
336.69810899999999
  0
LINE
  8
_0-0_0
  6
CONTINUOUS
 62
    7
 10
171.18811411246395
 20
91.962879999778409
 11
191.18811811246394
 21
57.321858999778399
  0
ARC
  8
_0-0_0
  6
CONTINUOUS
 62
    7
 10
151.80154011246395
 20
192.5516799997784
 40
21.92475
 50
340.41307700000004
 51
81.45415200000005
  0
ARC
  8
_0-0_0
  6
CONTINUOUS
 62
    7
 10
142.53677011246396
 20
185.7878009997784
 40
25.490311999999999
 50
9.5062069999999999
 51
84.567700000000002
  0
ARC
  8
_0-0_0
  6
CONTINUOUS
 62
    7
 10
141.98284511246393
 20
180.6362509997783
 40
21.978317000000001
 50
13.356039999999998
 51
87.576228
  0
ARC
  8
_0-0_0
  6
CONTINUOUS
 62
    7
 10
143.60861411246395
 20
177.36613299977842
 40
18.299399000000001
 50
356.70165700000001
 51
78.609576000000004
  0
ARC
  8
_0-0_0
  6
CONTINUOUS
 62
    7
 10
152.59875111246396
 20
191.61085999977843
 40
7.342982000000001
 50
149.15316300000001
 51
245.32187200000007
  0
ARC
  8
_0-0_0
  6
CONTINUOUS
 62
    7
 10
241.64045611246394
 20
128.73488299977839
 40
78.082360999999992
 50
175.366063
 51
203.62401699999998
  0
ARC
  8
_0-0_0
  6
CONTINUOUS
 62
    7
 10
253.02051011246391
 20
141.23903399977837
 40
85.525079000000005
 50
183.93568300000001
 51
211.17796100000001
  0
ARC
  8
_0-0_0
  6
CONTINUOUS
 62
    7
 10
260.57232311246395
 20
148.09236599977839
 40
105.54646
 50
176.70719800000001
 51
212.12707
  0
ARC
  8
_0-0_0
  6
CONTINUOUS
 62
    7
 10
169.23864411246393
 20
97.087452999778392
 40
0.9341649999999999
 50
212.38205500000001
 51
22.483370999999998
  0
ARC
  8
_0-0_0
  6
CONTINUOUS
 62
    7
 10
179.73694211246396
 20
142.39769499977837
 40
17.123567000000001
 50
40.915103999999999
 51
165.86783800000001
  0
ARC
  8
_0-0_0
  6
CONTINUOUS
 62
    7
 10
-647.80304288753609
 20
275.17554499977842
 40
815.69404299999997
 50
350.874686
 51
353.03862700000002
  0
ARC
  8
_0-0_0
  6
CONTINUOUS
 62
    7
 10
54.793490112463928
 20
172.00417099977841
 40
103.264905
 50
349.45225799999997
 51
1.1491609999999872
  0
ARC
  8
_0-0_0
  6
CONTINUOUS
 62
    7
 10
232.52076911246394
 20
133.61186699977839
 40
73.27937
 50
133.325402
 51
180.775983
  0
ARC
  8
_0-0_0
  6
CONTINUOUS
 62
    7
 10
182.80307011246396
 20
135.24232999977835
 40
18.990777999999999
 50
68.033479
 51
180.60106199999998
  0
ARC
  8
_0-0_0
  6
CONTINUOUS
 62
    7
 10
111.10122311246393
 20
161.9498189997783
 40
44.782525999999997
 50
349.97583300000002
 51
30.886624000000015
  0
ARC
  8
_0-0_0
  6
CONTINUOUS
 62
    7
 10
184.09221611246394
 20
135.88881399977839
 40
16.403335999999999
 50
69.152570999999995
 51
181.81638500000003
  0
ARC
  8
_0-0_0
  6
CONTINUOUS
 62
    7
 10
123.70489111246394
 20
184.33736099977841
 40
44.334961
 50
340.144814
 51
7.3350150000000163
  0
ARC
  8
_0-0_0
  6
CONTINUOUS
 62
    7
 10
104.62747411246394
 20
179.5105789997784
 40
59.065845000000003
 50
342.93901699999992
 51
6.0279309999999935
  0
ARC
  8
_0-0_0
  6
CONTINUOUS
 62
    7
 10
136.44734111246396
 20
171.5952349997784
 40
21.732233000000001
 50
6.552503999999999
 51
53.101531000000008
  0
ARC
  8
_0-0_0
  6
CONTINUOUS
 62
    7
 10
194.11679111246394
 20
185.69118199977828
 40
0.5531709999999999
 50
124.824671
 51
280.93934100000007
  0
ARC
  8
_0-0_0
  6
CONTINUOUS
 62
    7
 10
153.99097211246394
 20
205.27622899977843
 40
14.651424
 50
84.226388999999998
 51
165.928777
  0
ARC
  8
_0-0_0
  6
CONTINUOUS
 62
    7
 10
154.18328511246392
 20
207.5016069997784
 40
14.466006
 50
85.969302999999996
 51
236.95256800000004
  0
ARC
  8
_0-0_0
  6
CONTINUOUS
 62
    7
 10
146.67734311246392
 20
186.0188189997784
 40
36.910485999999999
 50
17.171748000000001
 51
76.649707999999976
  0
ARC
  8
_0-0_0
  6
CONTINUOUS
 62
    7
 10
145.92199311246395
 20
182.14402599977839
 40
38.898059000000011
 50
21.982552000000002
 51
75.798631999999998
  0
ARC
  8
_0-0_0
  6
CONTINUOUS
 62
    7
 10
182.67941411246395
 20
197.21937999977843
 40
0.7968609999999999
 50
202.36616999999987
 51
330.68620399999992
  0
ARC
  8
_0-0_0
  6
CONTINUOUS
 62
    7
 10
241.69158511246394
 20
133.22331699977838
 40
68.637842000000006
 50
98.866174999999998
 51
130.74238799999992
  0
ARC
  8
_0-0_0
  6
CONTINUOUS
 62
    7
 10
255.18641011246393
 20
201.17842599977843
 40
24.949985000000002
 50
203.67300399999999
 51
3.429641000000021
  0
ARC
  8
_0-0_0
  6
CONTINUOUS
 62
    7
 10
249.10028911246394
 20
214.65834499977831
 40
19.090198000000001
 50
224.01632599999994
 51
28.494923000000036
  0
ARC
  8
_0-0_0
  6
CONTINUOUS
 62
    7
 10
252.30638711246394
 20
206.9000689997784
 40
22.616408
 50
271.32065899999998
 51
35.091319000000027
  0
ARC
  8
_0-0_0
  6
CONTINUOUS
 62
    7
 10
251.80265111246393
 20
203.44492999977842
 40
19.182663999999999
 50
191.75944599999994
 51
273.06295799999998
  0
ARC
  8
_0-0_0
  6
CONTINUOUS
 62
    7
 10
254.38480411246394
 20
198.7297199997783
 40
25.895709
 50
224.25097000000014
 51
5.6312070000000203
  0
ARC
  8
_0-0_0
  6
CONTINUOUS
 62
    7
 10
253.97238411246394
 20
195.60069199977841
 40
23.498192
 50
163.88527999999997
 51
219.48222799999996
  0
ARC
  8
_0-0_0
  6
CONTINUOUS
 62
    7
 10
225.46786711246395
 20
172.05336499977841
 40
12.77791
 50
206.89181199999999
 51
261.03220800000003
  0
ARC
  8
_0-0_0
  6
CONTINUOUS
 62
    7
 10
183.31148911246396
 20
141.06349699977838
 40
33.725476
 50
25.16238400000001
 51
66.658773999999994
  0
ARC
  8
_0-0_0
  6
CONTINUOUS
 62
    7
 10
220.35366411246395
 20
157.85121599977839
 40
7.2414319999999996
 50
280.50912100000005
 51
37.225303000000025
  0
ARC
  8
_0-0_0
  6
CONTINUOUS
 62
    7
 10
219.15372811246394
 20
158.22279799977838
 40
6.2264679999999988
 50
278.18489
 51
34.537046000000011
  0
ARC
  8
_0-0_0
  6
CONTINUOUS
 62
    7
 10
216.46425511246395
 20
185.30604999977839
 40
34.965164000000001
 50
250.48530300000002
 51
278.56962000000004
  0
ARC
  8
_0-0_0
  6
CONTINUOUS
 62
    7
 10
213.30587511246395
 20
199.27433699977843
 40
47.692418999999987
 50
256.554418
 51
278.11746199999999
  0
ARC
  8
_0-0_0
  6
CONTINUOUS
 62
    7
 10
200.69517111246392
 20
143.77290799977837
 40
9.2422520000000006
 50
80.526556999999997
 51
122.124083
  0
ARC
  8
_0-0_0
  6
CONTINUOUS
 62
    7
 10
257.92760211246394
 20
196.6270339997784
 40
46.848296999999988
 50
216.07800700000001
 51
227.23801700000001
  0
ARC
  8
_0-0_0
  6
CONTINUOUS
 62
    7
 10
259.57514311246393
 20
187.0526929997784
 40
43.423833999999999
 50
203.800906
 51
215.63546500000001
  0
ARC
  8
_0-0_0
  6
CONTINUOUS
 62
    7
 10
239.25368011246394
 20
160.4562579997783
 40
54.480840999999998
 50
71.821365
 51
107.486981
  0
ARC
  8
_0-0_0
  6
CONTINUOUS
 62
    7
 10
249.50270611246393
 20
229.92018599977843
 40
21.779816
 50
253.01944000000003
 51
275.53909299999998
  0
ARC
  8
_0-0_0
  6
CONTINUOUS
 62
    7
 10
247.06809311246394
 20
218.8734579997784
 40
18.636229
 50
276.61083100000008
 51
22.851730000000039
  0
ARC
  8
_0-0_0
  6
CONTINUOUS
 62
    7
 10
250.96640211246392
 20
168.56898999977841
 40
60.673498999999993
 50
84.822466000000006
 51
108.24119700000001
  0
ARC
  8
_0-0_0
  6
CONTINUOUS
 62
    7
 10
263.24511911246395
 20
197.73252699977837
 40
14.823941
 50
104.29078699999999
 51
170.24910399999999
  0
ARC
  8
_0-0_0
  6
CONTINUOUS
 62
    7
 10
251.84661511246395
 20
236.7024369997784
 40
28.102145
 50
251.123571
 51
270.09433899999999
  0
ARC
  8
_0-0_0
  6
CONTINUOUS
 62
    7
 10
263.68229011246393
 20
198.83211199977842
 40
15.310402
 50
116.35288700000001
 51
173.63825800000001
  0
ARC
  8
_0-0_0
  6
CONTINUOUS
 62
    7
 10
250.65210211246395
 20
156.41377699977838
 40
71.957634999999996
 50
85.418175000000019
 51
104.66395400000002
  0
ARC
  8
_0-0_0
  6
CONTINUOUS
 62
    7
 10
206.05217711246394
 20
229.33705599977827
 40
18.496587999999999
 50
283.64275700000007
 51
4.0757070000000608
  0
ARC
  8
_0-0_0
  6
CONTINUOUS
 62
    7
 10
191.03562211246395
 20
231.9364459997783
 40
24.195772999999999
 50
304.057346
 51
5.7272949999999785
  0
ARC
  8
_0-0_0
  6
CONTINUOUS
 62
    7
 10
230.48738311246393
 20
214.30171699977842
 40
13.685826
 50
313.84987000000001
 51
337.615431
  0
ARC
  8
_0-0_0
  6
CONTINUOUS
 62
    7
 10
230.74257111246393
 20
215.8675739997783
 40
13.320045
 50
306.35999400000003
 51
334.39753800000005
  0
ARC
  8
_0-0_0
  6
CONTINUOUS
 62
    7
 10
235.17116011246395
 20
204.1813559997783
 40
2.8193980000000001
 50
35.450552999999999
 51
158.23419999999999
  0
ARC
  8
_0-0_0
  6
CONTINUOUS
 62
    7
 10
234.85725611246394
 20
201.72945099977841
 40
3.4820690000000001
 50
50.414441999999987
 51
173.512418
  0
LINE
  8
_0-0_0
  6
CONTINUOUS
 62
    7
 10
232.55276411246393
 20
205.22682699977838
 11
231.80971911246394
 21
203.6656699997784
  0
ARC
  8
_0-0_0
  6
CONTINUOUS
 62
    7
 10
230.74257111246393
 20
215.8675739997783
 40
13.320045
 50
269.16710000000012
 51
273.163389
  0
ARC
  8
_0-0_0
  6
CONTINUOUS
 62
    7
 10
259.50403711246395
 20
242.66652399977841
 40
42.936084000000001
 50
239.12068800000003
 51
255.18717799999999
  0
ARC
  8
_0-0_0
  6
CONTINUOUS
 62
    7
 10
252.14385611246394
 20
229.95375499977843
 40
29.654129000000001
 50
239.46159699999998
 51
262.87586699999997
  0
ARC
  8
_0-0_0
  6
CONTINUOUS
 62
    7
 10
215.97602311246393
 20
221.46382599977841
 40
16.273187
 50
14.630581000000001
 51
144.52372900000003
  0
ARC
  8
_0-0_0
  6
CONTINUOUS
 62
    7
 10
216.77469211246395
 20
223.85432899977837
 40
15.811444
 50
7.9000769999999987
 51
149.66162999999997
  0
ARC
  8
_0-0_0
  6
CONTINUOUS
 62
    7
 10
277.66448011246393
 20
233.73402899977839
 40
15.436534
 50
209.59350699999999
 51
243.64604399999999
  0
ARC
  8
_0-0_0
  6
CONTINUOUS
 62
    7
 10
255.03730111246392
 20
219.99245199977832
 40
9.1113400000000002
 50
299.94890500000002
 51
81.133222000000004
  0
ARC
  8
_0-0_0
  6
CONTINUOUS
 62
    7
 10
254.13034911246393
 20
220.2681109997784
 40
8.1939989999999998
 50
289.65192999999999
 51
73.917447999999993
  0
ARC
  8
_0-0_0
  6
CONTINUOUS
 62
    7
 10
256.12292111246393
 20
200.87672899977838
 40
24.03586
 50
0.9392599999999997
 51
52.328704999999999
  0
ARC
  8
_0-0_0
  6
CONTINUOUS
 62
    7
 10
252.30638711246394
 20
206.9000689997784
 40
22.616408
 50
58.14814599999999
 51
74.006500000000003
  0
ENDSEC
  0
EOF
