  0
SECTION
  2
HEADER
  9
$ACADVER
  1
AC1009
  9
$INSBASE
 10
0
 20
0
 30
0
  9
$EXTMIN
 10
0
 20
0
  9
$EXTMAX
 10
420
 20
297
  9
$LIMMIN
 10
0
 20
0
  9
$LIMMAX
 10
420
 20
297
  9
$LTSCALE
 40
1
  0
ENDSEC
  0
SECTION
  2
TABLES
  0
TABLE
  2
LTYPE
 70
     9
  0
LTYPE
  2
CONTINUOUS
 70
    64
  3
実線
 72
    65
 73
     0
 40
0.0
  0
LTYPE
  2
DASHED1
 70
    64
  3
--  --  --  --  --  --  --  --  
 72
    65
 73
     2
 40
2.5
 49
1.25
 49
-1.25
  0
LTYPE
  2
DASHED2
 70
    64
  3
----    ----    ----    ----    
 72
    65
 73
     2
 40
5.0
 49
2.5
 49
-2.5
  0
LTYPE
  2
DASHED3
 70
    64
  3
------  ------  ------  ------  
 72
    65
 73
     2
 40
5.0
 49
3.75
 49
-1.25
  0
LTYPE
  2
CENTER1
 70
    64
  3
----- - ----- - ----- - ----- - 
 72
    65
 73
     4
 40
10.0
 49
6.25
 49
-1.25
 49
1.25
 49
-1.25
  0
LTYPE
  2
CENTER2
 70
    64
  3
----------  --  ----------  --  
 72
    65
 73
     4
 40
20.0
 49
12.5
 49
-2.5
 49
2.5
 49
-2.5
  0
LTYPE
  2
PHANTOM1
 70
    64
  3
--- - - --- - - --- - - --- - - 
 72
    65
 73
     6
 40
10.0
 49
3.25
 49
-1.25
 49
1.25
 49
-1.25
 49
1.25
 49
-1.25
  0
LTYPE
  2
PHANTOM2
 70
    64
  3
--------  -  -  --------  -  -  
 72
    65
 73
     6
 40
20.0
 49
10.0
 49
-2.5
 49
1.25
 49
-2.5
 49
1.25
 49
-2.5
  0
LTYPE
  2
DOT
 70
    64
  3
-   -   -   -   -   -   -   -   
 72
    65
 73
     2
 40
2.5
 49
0.625
 49
-1.875
  0
LTYPE
  2
DUMMY
 70
    64
  3
ダミー
 72
    65
 73
     0
 40
0.0
  0
LTYPE
  2
RAND1
 70
    64
  3
ランダム線1
 72
    65
 73
     4
 40
10.0
 49
1.0
 49
-2.0
 49
3.0
 49
-4.0
  0
LTYPE
  2
RAND2
 70
    64
  3
ランダム線2
 72
    65
 73
     4
 40
14.0
 49
2.0
 49
-3.0
 49
4.0
 49
-5.0
  0
LTYPE
  2
RAND3
 70
    64
  3
ランダム線3
 72
    65
 73
     4
 40
18.0
 49
3.0
 49
-4.0
 49
5.0
 49
-6.0
  0
LTYPE
  2
RAND4
 70
    64
  3
ランダム線4
 72
    65
 73
     4
 40
22.0
 49
4.0
 49
-5.0
 49
6.0
 49
-7.0
  0
LTYPE
  2
RAND5
 70
    64
  3
ランダム線5
 72
    65
 73
     4
 40
26.0
 49
5.0
 49
-6.0
 49
7.0
 49
-8.0
  0
LTYPE
  2
LONG1
 70
    64
  3
----------  --  ----------  --  
 72
    65
 73
     4
 40
40.0
 49
32.5
 49
-2.5
 49
2.5
 49
-2.5
  0
LTYPE
  2
LONG2
 70
    64
  3
--------  -  -  --------  -  -  
 72
    65
 73
     6
 40
40.0
 49
30.0
 49
-2.5
 49
1.25
 49
-2.5
 49
1.25
 49
-2.5
  0
LTYPE
  2
LONG3
 70
    64
  3
+++++++++++++++..+++++++++++++++
 72
    65
 73
     2
 40
40.0
 49
37.5
 49
-2.5
  0
LTYPE
  2
LONG4
 70
    64
  3
+++++++++++++++..+++++++++++++++
 72
    65
 73
     2
 40
80.0
 49
75.0
 49
-5.0
  0
LTYPE
  2
LONG5
 70
    64
  3
----------  --  ----------  --  
 72
    65
 73
     4
 40
60.0
 49
37.5
 49
-7.5
 49
7.5
 49
-7.5
  0
LTYPE
  2
dashed
 70
   64
  3
-------   -------------   ------
 72
   65
 73
    2
 40
7.5
 49
6
 49
-1.5
  0
LTYPE
  2
dashed_spaced
 70
   64
  3
----        --------        ----
 72
   65
 73
    2
 40
12
 49
6
 49
-6
  0
LTYPE
  2
long_dashed_dotted
 70
   64
  3
------------- --- --------------
 72
   65
 73
    4
 40
15.25
 49
12
 49
-1.5
 49
0.25
 49
-1.5
  0
LTYPE
  2
long_dashed_double-dotted
 70
   64
  3
----------- --- --- ------------
 72
   65
 73
    6
 40
17
 49
12
 49
-1.5
 49
0.25
 49
-1.5
 49
0.25
 49
-1.5
  0
LTYPE
  2
long_dashed_triplicate-dotted
 70
   64
  3
--------- --- --- --- ----------
 72
   65
 73
    8
 40
18.75
 49
12
 49
-1.5
 49
0.25
 49
-1.5
 49
0.25
 49
-1.5
 49
0.25
 49
-1.5
  0
LTYPE
  2
dotted
 70
   64
  3
   -       -       -       -    
 72
   65
 73
    2
 40
1.75
 49
0.25
 49
-1.5
  0
LTYPE
  2
chain
 70
   64
  3
-------------- -- --------------
 72
   65
 73
    4
 40
18.5
 49
12
 49
-1.5
 49
3.5
 49
-1.5
  0
LTYPE
  2
chain_double_dash
 70
   64
  3
------------ -- -- -------------
 72
   65
 73
    6
 40
23.5
 49
12
 49
-1.5
 49
3.5
 49
-1.5
 49
3.5
 49
-1.5
  0
LTYPE
  2
dashed_dotted
 70
   64
  3
-----------     -     ----------
 72
   65
 73
    4
 40
9.25
 49
6
 49
-1.5
 49
0.25
 49
-1.5
  0
LTYPE
  2
double-dashed_dotted
 70
   64
  3
------   -----------   -   -----
 72
   65
 73
    6
 40
16.75
 49
6
 49
-1.5
 49
6
 49
-1.5
 49
0.25
 49
-1.5
  0
LTYPE
  2
dashed_double-dotted
 70
   64
  3
---------    -    -    ---------
 72
   65
 73
    6
 40
11
 49
6
 49
-1.5
 49
0.25
 49
-1.5
 49
0.25
 49
-1.5
  0
LTYPE
  2
double-dashed_double-dotted
 70
   64
  3
-----   ---------   -   -   ----
 72
   65
 73
    8
 40
18.5
 49
6
 49
-1.5
 49
6
 49
-1.5
 49
0.25
 49
-1.5
 49
0.25
 49
-1.5
  0
LTYPE
  2
dashed_triplicate-dotted
 70
   64
  3
-------    -    -    -    ------
 72
   65
 73
    8
 40
12.75
 49
6
 49
-1.5
 49
0.25
 49
-1.5
 49
0.25
 49
-1.5
 49
0.25
 49
-1.5
  0
LTYPE
  2
double-dashed_triplicate-dotted
 70
   64
  3
-----  ---------  -  -  -  -----
 72
   65
 73
   10
 40
20.25
 49
6
 49
-1.5
 49
6
 49
-1.5
 49
0.25
 49
-1.5
 49
0.25
 49
-1.5
 49
0.25
 49
-1.5
  0
LTYPE
  2
undefined
 70
   64
  3
--------------------------------
 72
   65
 73
    0
 40
0
  0
LTYPE
  2
BORDER
 70
   64
  3
----     --------     -     ----
 72
   65
 73
    0
 40
0
  0
LTYPE
  2
BORDER2
 70
   64
  3
----     --------     -     ----
 72
   65
 73
    0
 40
0
  0
LTYPE
  2
BORDERX2
 70
   64
  3
----     --------     -     ----
 72
   65
 73
    0
 40
0
  0
LTYPE
  2
CENTER
 70
   64
  3
----------    ----    ----------
 72
   65
 73
    0
 40
0
  0
LTYPE
  2
CENTER2_21
 70
   64
  3
----------    ----    ----------
 72
   65
 73
    0
 40
0
  0
LTYPE
  2
CENTERX2
 70
   64
  3
----------    ----    ----------
 72
   65
 73
    0
 40
0
  0
LTYPE
  2
DASHDOT
 70
   64
  3
--------        -        -------
 72
   65
 73
    0
 40
0
  0
LTYPE
  2
DASHDOT2
 70
   64
  3
--------        -        -------
 72
   65
 73
    0
 40
0
  0
LTYPE
  2
DASHDOTX2
 70
   64
  3
--------        -        -------
 72
   65
 73
    0
 40
0
  0
LTYPE
  2
DASHED
 70
   64
  3
------     -----------     -----
 72
   65
 73
    0
 40
0
  0
LTYPE
  2
DASHED2_27
 70
   64
  3
------     -----------     -----
 72
   65
 73
    0
 40
0
  0
LTYPE
  2
DASHEDX2
 70
   64
  3
------     -----------     -----
 72
   65
 73
    0
 40
0
  0
LTYPE
  2
DIVIDE
 70
   64
  3
------      -      -      ------
 72
   65
 73
    0
 40
0
  0
LTYPE
  2
DIVIDE2
 70
   64
  3
------      -      -      ------
 72
   65
 73
    0
 40
0
  0
LTYPE
  2
DIVIDEX2
 70
   64
  3
------      -      -      ------
 72
   65
 73
    0
 40
0
  0
LTYPE
  2
DOT_32
 70
   64
  3
-               -               
 72
   65
 73
    0
 40
0
  0
ENDTAB
  0
TABLE
  2
STYLE
  5
3
100
AcDbSymbolTable
 70
     1
  0
STYLE
  5
10
100
AcDbSymbolTableRecord
100
AcDbTextStyleTableRecord
  2
STANDARD
 70
     0
 40
0.0
 41
1.0
 50
0.0
 71
     0
 42
0.2
  3
txt
  4
bigfont.shx
  0
STYLE
  5
26
100
AcDbSymbolTableRecord
100
AcDbTextStyleTableRecord
  2
TATEGAKI
 70
    68
 40
0.0
 41
1.0
 50
0.0
 71
     0
 42
1.0
  3
txt
  4
bigfont.shx
  0
ENDTAB
  0
TABLE
  2
LAYER
 70
    2
  0
LAYER
  2
_0-0_0
 70
   64
 62
    7
  6
CONTINUOUS
  0
LAYER
  2
ADD_LINE
 70
   64
 62
    7
  6
CONTINUOUS
  0
ENDTAB
  0
ENDSEC
  0
SECTION
  2
BLOCKS
  0
ENDSEC
  0
SECTION
  2
ENTITIES
  0
ARC
  8
_0-0_0
  6
CONTINUOUS
 62
    7
 10
229.01606050000001
 20
158.8041145
 40
3.5490219999999999
 50
210.57253300000002
 51
321.95801500000005
  0
LINE
  8
_0-0_0
  6
CONTINUOUS
 62
    7
 10
230.5528535
 20
62.720679500000003
 11
221.89259849999999
 21
67.720679500000003
  0
LINE
  8
_0-0_0
  6
CONTINUOUS
 62
    7
 10
221.89259849999999
 20
67.720679500000003
 11
241.89259950000002
 21
102.3616985
  0
ARC
  8
_0-0_0
  6
CONTINUOUS
 62
    7
 10
228.39480850000001
 20
160.25006250000001
 40
3.9769480000000001
 50
235.17890400000002
 51
329.86128100000008
  0
ARC
  8
_0-0_0
  6
CONTINUOUS
 62
    7
 10
231.7767115
 20
155.4372875
 40
23.481030000000001
 50
32.610202000000001
 51
106.60307899999999
  0
ARC
  8
_0-0_0
  6
CONTINUOUS
 62
    7
 10
237.8735485
 20
141.06607150000002
 40
27.319531000000001
 50
59.373448000000003
 51
134.51679200000001
  0
ARC
  8
_0-0_0
  6
CONTINUOUS
 62
    7
 10
229.0207815
 20
157.5752085
 40
25.585661000000002
 50
36.760818999999998
 51
146.56506799999997
  0
ARC
  8
_0-0_0
  6
CONTINUOUS
 62
    7
 10
225.43249549999999
 20
165.14426350000002
 40
25.488188000000001
 50
85.303961000000001
 51
157.428853
  0
ARC
  8
_0-0_0
  6
CONTINUOUS
 62
    7
 10
178.52204549999999
 20
130.20003150000002
 40
78.773328000000006
 50
51.145508
 51
80.744282999999996
  0
ARC
  8
_0-0_0
  6
CONTINUOUS
 62
    7
 10
175.99124449999999
 20
136.23275849999999
 40
84.729364000000004
 50
41.448559000000003
 51
74.342742999999999
  0
ARC
  8
_0-0_0
  6
CONTINUOUS
 62
    7
 10
391.46730650000001
 20
311.68942950000002
 40
188.20622599999999
 50
203.30189200000004
 51
215.56339300000002
  0
ARC
  8
_0-0_0
  6
CONTINUOUS
 62
    7
 10
167.7685875
 20
200.99953750000003
 40
23.498192
 50
320.51774599999999
 51
16.114628
  0
ARC
  8
_0-0_0
  6
CONTINUOUS
 62
    7
 10
180.0493865
 20
138.62213250000002
 40
68.637842000000006
 50
49.257617000000003
 51
81.133823000000021
  0
ARC
  8
_0-0_0
  6
CONTINUOUS
 62
    7
 10
169.93831449999999
 20
208.8437515
 40
19.182663999999999
 50
266.93704300000002
 51
348.24063699999999
  0
ARC
  8
_0-0_0
  6
CONTINUOUS
 62
    7
 10
172.64067649999998
 20
220.05716649999999
 40
19.090198000000001
 50
151.50500199999999
 51
315.983676
  0
ARC
  8
_0-0_0
  6
CONTINUOUS
 62
    7
 10
169.4345855
 20
212.29889050000003
 40
22.616408
 50
144.90867900000001
 51
268.67934300000007
  0
ARC
  8
_0-0_0
  6
CONTINUOUS
 62
    7
 10
166.55455549999999
 20
206.57723449999997
 40
24.949985000000002
 50
176.57028000000003
 51
336.32701100000008
  0
ARC
  8
_0-0_0
  6
CONTINUOUS
 62
    7
 10
167.3561675
 20
204.12856549999998
 40
25.895706000000001
 50
174.368842
 51
315.74901799999998
  0
ARC
  8
_0-0_0
  6
CONTINUOUS
 62
    7
 10
238.42948150000001
 20
146.4623115
 40
33.725470000000001
 50
113.341211
 51
154.83758800000001
  0
ARC
  8
_0-0_0
  6
CONTINUOUS
 62
    7
 10
196.27310449999999
 20
177.45218649999998
 40
12.777908999999999
 50
278.96776599999998
 51
333.10818899999998
  0
ARC
  8
_0-0_0
  6
CONTINUOUS
 62
    7
 10
202.5872435
 20
163.62162549999999
 40
6.2264679999999997
 50
145.46294900000001
 51
261.81508400000001
  0
ARC
  8
_0-0_0
  6
CONTINUOUS
 62
    7
 10
201.38730849999999
 20
163.25003150000001
 40
7.2414319999999996
 50
142.774586
 51
259.49088
  0
ARC
  8
_0-0_0
  6
CONTINUOUS
 62
    7
 10
208.43509649999999
 20
204.6731575
 40
47.692419000000001
 50
261.88253900000007
 51
283.44558300000006
  0
ARC
  8
_0-0_0
  6
CONTINUOUS
 62
    7
 10
205.27671649999999
 20
190.7048595
 40
34.965161000000002
 50
261.43038100000001
 51
289.514725
  0
ARC
  8
_0-0_0
  6
CONTINUOUS
 62
    7
 10
221.04580150000001
 20
149.17172349999998
 40
9.2422500000000003
 50
57.87598400000001
 51
99.473441000000008
  0
ARC
  8
_0-0_0
  6
CONTINUOUS
 62
    7
 10
162.1658295
 20
192.4515145
 40
43.423833999999999
 50
324.36453599999999
 51
336.199096
  0
ARC
  8
_0-0_0
  6
CONTINUOUS
 62
    7
 10
163.81336949999999
 20
202.02584350000001
 40
46.848297000000002
 50
312.76201200000003
 51
323.92199499999998
  0
ARC
  8
_0-0_0
  6
CONTINUOUS
 62
    7
 10
170.77456949999998
 20
173.96781149999998
 40
60.673499
 50
71.758814000000001
 51
95.177532000000014
  0
ARC
  8
_0-0_0
  6
CONTINUOUS
 62
    7
 10
171.08886949999999
 20
161.81259249999999
 40
71.957634999999996
 50
75.336044000000001
 51
94.581823
  0
ARC
  8
_0-0_0
  6
CONTINUOUS
 62
    7
 10
182.4872925
 20
165.8550735
 40
54.480840999999998
 50
72.513024000000001
 51
108.178633
  0
ARC
  8
_0-0_0
  6
CONTINUOUS
 62
    7
 10
169.89435650000001
 20
242.10125850000003
 40
28.102145
 50
269.90566200000006
 51
288.87643100000008
  0
ARC
  8
_0-0_0
  6
CONTINUOUS
 62
    7
 10
172.23826550000001
 20
235.31899550000003
 40
21.779816
 50
264.46090900000002
 51
286.98058900000001
  0
ARC
  8
_0-0_0
  6
CONTINUOUS
 62
    7
 10
158.05866950000001
 20
204.23092150000002
 40
15.310402
 50
6.3617330000000001
 51
63.647090000000006
  0
ARC
  8
_0-0_0
  6
CONTINUOUS
 62
    7
 10
158.49585250000001
 20
203.1313485
 40
14.823941
 50
9.7509479999999993
 51
75.709225000000018
  0
ARC
  8
_0-0_0
  6
CONTINUOUS
 62
    7
 10
174.67287249999998
 20
224.27230350000002
 40
18.636229
 50
157.14836399999999
 51
263.38919700000002
  0
ARC
  8
_0-0_0
  6
CONTINUOUS
 62
    7
 10
144.0764915
 20
239.13285050000002
 40
15.436534
 50
296.35395800000003
 51
330.40644000000003
  0
ARC
  8
_0-0_0
  6
CONTINUOUS
 62
    7
 10
167.61061649999999
 20
225.66695650000003
 40
8.1939989999999998
 50
106.08257800000001
 51
250.34815300000005
  0
ARC
  8
_0-0_0
  6
CONTINUOUS
 62
    7
 10
166.7036645
 20
225.39127350000001
 40
9.1113400000000002
 50
98.866715000000013
 51
240.051096
  0
ARC
  8
_0-0_0
  6
CONTINUOUS
 62
    7
 10
165.61805050000001
 20
206.27553849999998
 40
24.03586
 50
127.67127600000003
 51
179.06071700000004
  0
ARC
  8
_0-0_0
  6
CONTINUOUS
 62
    7
 10
169.4345855
 20
212.29889050000003
 40
22.616408
 50
105.993526
 51
121.851873
  0
ARC
  8
_0-0_0
  6
CONTINUOUS
 62
    7
 10
230.70535050000001
 20
237.33529149999998
 40
24.195772999999999
 50
174.27276800000004
 51
235.942656
  0
ARC
  8
_0-0_0
  6
CONTINUOUS
 62
    7
 10
215.6887935
 20
234.73587750000002
 40
18.496587999999999
 50
175.92421300000001
 51
256.35724399999998
  0
ARC
  8
_0-0_0
  6
CONTINUOUS
 62
    7
 10
190.9984005
 20
221.26639549999999
 40
13.320045
 50
205.60240899999999
 51
233.63998000000004
  0
ARC
  8
_0-0_0
  6
CONTINUOUS
 62
    7
 10
191.25358850000001
 20
219.70055050000002
 40
13.685826
 50
202.38457
 51
226.15014499999998
  0
ARC
  8
_0-0_0
  6
CONTINUOUS
 62
    7
 10
186.88371549999999
 20
207.12827249999998
 40
3.4820690000000001
 50
6.4873870000000009
 51
129.58539500000001
  0
ARC
  8
_0-0_0
  6
CONTINUOUS
 62
    7
 10
186.5698055
 20
209.58017649999999
 40
2.8193980000000001
 50
21.765777
 51
144.54937000000001
  0
ARC
  8
_0-0_0
  6
CONTINUOUS
 62
    7
 10
162.2369285
 20
248.06534549999998
 40
42.936081000000001
 50
284.81282299999998
 51
300.87931300000002
  0
ARC
  8
_0-0_0
  6
CONTINUOUS
 62
    7
 10
169.5971155
 20
235.35260149999999
 40
29.654129000000001
 50
277.12410699999998
 51
300.53837800000002
  0
LINE
  8
_0-0_0
  6
CONTINUOUS
 62
    7
 10
189.18820550000001
 20
210.62564750000001
 11
189.93125650000002
 21
209.0645025
  0
ARC
  8
_0-0_0
  6
CONTINUOUS
 62
    7
 10
190.9984005
 20
221.26639449999999
 40
13.320045
 50
266.83658500000001
 51
270.83290099999999
  0
ARC
  8
_0-0_0
  6
CONTINUOUS
 62
    7
 10
204.96627949999998
 20
229.25313849999998
 40
15.811444
 50
30.338372000000003
 51
172.09992099999999
  0
ARC
  8
_0-0_0
  6
CONTINUOUS
 62
    7
 10
205.76494750000001
 20
226.86264749999998
 40
16.273187
 50
35.476306000000001
 51
165.36941200000001
  0
LINE
  8
_0-0_0
  6
CONTINUOUS
 62
    7
 10
230.5528535
 20
62.720679500000003
 11
250.55285650000002
 21
97.361698500000003
  0
LINE
  8
_0-0_0
  6
CONTINUOUS
 62
    7
 10
250.55285650000002
 20
97.361698500000003
 11
230.5528535
 21
62.720679500000003
  0
ARC
  8
_0-0_0
  6
CONTINUOUS
 62
    7
 10
269.14222050000001
 20
197.0096815
 40
7.3429820000000001
 50
294.67813000000001
 51
30.846844999999995
  0
ARC
  8
_0-0_0
  6
CONTINUOUS
 62
    7
 10
278.13235150000003
 20
182.76496650000001
 40
18.299399000000001
 50
101.39042199999999
 51
183.29833099999999
  0
ARC
  8
_0-0_0
  6
CONTINUOUS
 62
    7
 10
279.75812050000002
 20
186.03508449999998
 40
21.978316
 50
92.423756999999995
 51
166.64395300000001
  0
ARC
  8
_0-0_0
  6
CONTINUOUS
 62
    7
 10
279.20420150000001
 20
191.1866225
 40
25.490311999999999
 50
95.43228400000001
 51
170.49378899999999
  0
ARC
  8
_0-0_0
  6
CONTINUOUS
 62
    7
 10
269.9394345
 20
197.95052550000003
 40
21.92475
 50
98.545845999999997
 51
199.58695200000003
  0
ARC
  8
_0-0_0
  6
CONTINUOUS
 62
    7
 10
168.7204615
 20
146.63784850000002
 40
85.525079000000005
 50
328.82205399999998
 51
356.064346
  0
ARC
  8
_0-0_0
  6
CONTINUOUS
 62
    7
 10
180.10051849999999
 20
134.13369850000001
 40
78.082348999999994
 50
336.37597
 51
4.6339429999999791
  0
ARC
  8
_0-0_0
  6
CONTINUOUS
 62
    7
 10
161.16864849999999
 20
153.49118149999998
 40
105.54646
 50
327.87293099999999
 51
3.2928070000000167
  0
ARC
  8
_0-0_0
  6
CONTINUOUS
 62
    7
 10
252.5023285
 20
102.48627350000001
 40
0.934165
 50
157.516593
 51
327.61811
  0
ARC
  8
_0-0_0
  6
CONTINUOUS
 62
    7
 10
189.22019649999999
 20
139.0106945
 40
73.279364000000001
 50
359.22399099999996
 51
46.674602999999955
  0
ARC
  8
_0-0_0
  6
CONTINUOUS
 62
    7
 10
366.94750650000003
 20
177.40299149999998
 40
103.264905
 50
178.85082600000004
 51
190.54774300000003
  0
ARC
  8
_0-0_0
  6
CONTINUOUS
 62
    7
 10
1069.5440155000001
 20
280.5743665
 40
815.69394499999999
 50
186.961375
 51
189.125302
  0
ARC
  8
_0-0_0
  6
CONTINUOUS
 62
    7
 10
310.6397485
 20
167.34865250000001
 40
44.782519999999998
 50
149.113384
 51
190.024182
  0
ARC
  8
_0-0_0
  6
CONTINUOUS
 62
    7
 10
238.93790150000001
 20
140.64115750000002
 40
18.990777999999999
 50
359.39889899999997
 51
111.96651900000002
  0
ARC
  8
_0-0_0
  6
CONTINUOUS
 62
    7
 10
242.0040305
 20
147.79650950000001
 40
17.123567000000001
 50
14.132218999999999
 51
139.08487700000003
  0
ARC
  8
_0-0_0
  6
CONTINUOUS
 62
    7
 10
237.64875549999999
 20
141.28763550000002
 40
16.403335999999999
 50
358.18367100000006
 51
110.84742700000004
  0
ARC
  8
_0-0_0
  6
CONTINUOUS
 62
    7
 10
298.03607450000004
 20
189.73617050000001
 40
44.334961
 50
172.66496900000001
 51
199.85516000000001
  0
ARC
  8
_0-0_0
  6
CONTINUOUS
 62
    7
 10
227.62418350000002
 20
191.09000350000002
 40
0.5531709999999999
 50
259.06030500000003
 51
55.17561000000002
  0
ARC
  8
_0-0_0
  6
CONTINUOUS
 62
    7
 10
317.11349749999999
 20
184.90938850000001
 40
59.065845000000003
 50
173.972049
 51
197.060957
  0
ARC
  8
_0-0_0
  6
CONTINUOUS
 62
    7
 10
285.29363050000001
 20
176.9940435
 40
21.732233000000001
 50
126.898453
 51
173.44743600000001
  0
ARC
  8
_0-0_0
  6
CONTINUOUS
 62
    7
 10
267.5576835
 20
212.9004405
 40
14.466004999999999
 50
303.04740700000002
 51
94.030682000000027
  0
ARC
  8
_0-0_0
  6
CONTINUOUS
 62
    7
 10
267.7499995
 20
210.67507449999999
 40
14.651424
 50
14.071183
 51
95.773636999999994
  0
ARC
  8
_0-0_0
  6
CONTINUOUS
 62
    7
 10
275.06363450000003
 20
191.41762750000001
 40
36.910485999999999
 50
103.350297
 51
162.82825399999999
  0
ARC
  8
_0-0_0
  6
CONTINUOUS
 62
    7
 10
275.81897850000001
 20
187.54284749999999
 40
38.898059000000003
 50
104.20138
 51
158.01745100000002
  0
ARC
  8
_0-0_0
  6
CONTINUOUS
 62
    7
 10
239.06155849999999
 20
202.6182015
 40
0.796861
 50
209.31377000000003
 51
337.63305300000007
  0
ENDSEC
  0
EOF
