  0
SECTION
  2
HEADER
  9
$ACADVER
  1
AC1009
  9
$INSBASE
 10
0
 20
0
 30
0
  9
$EXTMIN
 10
0
 20
0
  9
$EXTMAX
 10
420
 20
297
  9
$LIMMIN
 10
0
 20
0
  9
$LIMMAX
 10
420
 20
297
  9
$LTSCALE
 40
1
  0
ENDSEC
  0
SECTION
  2
TABLES
  0
TABLE
  2
LTYPE
 70
     9
  0
LTYPE
  2
CONTINUOUS
 70
    64
  3
実線
 72
    65
 73
     0
 40
0.0
  0
LTYPE
  2
DASHED1
 70
    64
  3
--  --  --  --  --  --  --  --  
 72
    65
 73
     2
 40
2.5
 49
1.25
 49
-1.25
  0
LTYPE
  2
DASHED2
 70
    64
  3
----    ----    ----    ----    
 72
    65
 73
     2
 40
5.0
 49
2.5
 49
-2.5
  0
LTYPE
  2
DASHED3
 70
    64
  3
------  ------  ------  ------  
 72
    65
 73
     2
 40
5.0
 49
3.75
 49
-1.25
  0
LTYPE
  2
CENTER1
 70
    64
  3
----- - ----- - ----- - ----- - 
 72
    65
 73
     4
 40
10.0
 49
6.25
 49
-1.25
 49
1.25
 49
-1.25
  0
LTYPE
  2
CENTER2
 70
    64
  3
----------  --  ----------  --  
 72
    65
 73
     4
 40
20.0
 49
12.5
 49
-2.5
 49
2.5
 49
-2.5
  0
LTYPE
  2
PHANTOM1
 70
    64
  3
--- - - --- - - --- - - --- - - 
 72
    65
 73
     6
 40
10.0
 49
3.25
 49
-1.25
 49
1.25
 49
-1.25
 49
1.25
 49
-1.25
  0
LTYPE
  2
PHANTOM2
 70
    64
  3
--------  -  -  --------  -  -  
 72
    65
 73
     6
 40
20.0
 49
10.0
 49
-2.5
 49
1.25
 49
-2.5
 49
1.25
 49
-2.5
  0
LTYPE
  2
DOT
 70
    64
  3
-   -   -   -   -   -   -   -   
 72
    65
 73
     2
 40
2.5
 49
0.625
 49
-1.875
  0
LTYPE
  2
DUMMY
 70
    64
  3
ダミー
 72
    65
 73
     0
 40
0.0
  0
LTYPE
  2
RAND1
 70
    64
  3
ランダム線1
 72
    65
 73
     4
 40
10.0
 49
1.0
 49
-2.0
 49
3.0
 49
-4.0
  0
LTYPE
  2
RAND2
 70
    64
  3
ランダム線2
 72
    65
 73
     4
 40
14.0
 49
2.0
 49
-3.0
 49
4.0
 49
-5.0
  0
LTYPE
  2
RAND3
 70
    64
  3
ランダム線3
 72
    65
 73
     4
 40
18.0
 49
3.0
 49
-4.0
 49
5.0
 49
-6.0
  0
LTYPE
  2
RAND4
 70
    64
  3
ランダム線4
 72
    65
 73
     4
 40
22.0
 49
4.0
 49
-5.0
 49
6.0
 49
-7.0
  0
LTYPE
  2
RAND5
 70
    64
  3
ランダム線5
 72
    65
 73
     4
 40
26.0
 49
5.0
 49
-6.0
 49
7.0
 49
-8.0
  0
LTYPE
  2
LONG1
 70
    64
  3
----------  --  ----------  --  
 72
    65
 73
     4
 40
40.0
 49
32.5
 49
-2.5
 49
2.5
 49
-2.5
  0
LTYPE
  2
LONG2
 70
    64
  3
--------  -  -  --------  -  -  
 72
    65
 73
     6
 40
40.0
 49
30.0
 49
-2.5
 49
1.25
 49
-2.5
 49
1.25
 49
-2.5
  0
LTYPE
  2
LONG3
 70
    64
  3
+++++++++++++++..+++++++++++++++
 72
    65
 73
     2
 40
40.0
 49
37.5
 49
-2.5
  0
LTYPE
  2
LONG4
 70
    64
  3
+++++++++++++++..+++++++++++++++
 72
    65
 73
     2
 40
80.0
 49
75.0
 49
-5.0
  0
LTYPE
  2
LONG5
 70
    64
  3
----------  --  ----------  --  
 72
    65
 73
     4
 40
60.0
 49
37.5
 49
-7.5
 49
7.5
 49
-7.5
  0
LTYPE
  2
dashed
 70
   64
  3
-------   -------------   ------
 72
   65
 73
    2
 40
7.5
 49
6
 49
-1.5
  0
LTYPE
  2
dashed_spaced
 70
   64
  3
----        --------        ----
 72
   65
 73
    2
 40
12
 49
6
 49
-6
  0
LTYPE
  2
long_dashed_dotted
 70
   64
  3
------------- --- --------------
 72
   65
 73
    4
 40
15.25
 49
12
 49
-1.5
 49
0.25
 49
-1.5
  0
LTYPE
  2
long_dashed_double-dotted
 70
   64
  3
----------- --- --- ------------
 72
   65
 73
    6
 40
17
 49
12
 49
-1.5
 49
0.25
 49
-1.5
 49
0.25
 49
-1.5
  0
LTYPE
  2
long_dashed_triplicate-dotted
 70
   64
  3
--------- --- --- --- ----------
 72
   65
 73
    8
 40
18.75
 49
12
 49
-1.5
 49
0.25
 49
-1.5
 49
0.25
 49
-1.5
 49
0.25
 49
-1.5
  0
LTYPE
  2
dotted
 70
   64
  3
   -       -       -       -    
 72
   65
 73
    2
 40
1.75
 49
0.25
 49
-1.5
  0
LTYPE
  2
chain
 70
   64
  3
-------------- -- --------------
 72
   65
 73
    4
 40
18.5
 49
12
 49
-1.5
 49
3.5
 49
-1.5
  0
LTYPE
  2
chain_double_dash
 70
   64
  3
------------ -- -- -------------
 72
   65
 73
    6
 40
23.5
 49
12
 49
-1.5
 49
3.5
 49
-1.5
 49
3.5
 49
-1.5
  0
LTYPE
  2
dashed_dotted
 70
   64
  3
-----------     -     ----------
 72
   65
 73
    4
 40
9.25
 49
6
 49
-1.5
 49
0.25
 49
-1.5
  0
LTYPE
  2
double-dashed_dotted
 70
   64
  3
------   -----------   -   -----
 72
   65
 73
    6
 40
16.75
 49
6
 49
-1.5
 49
6
 49
-1.5
 49
0.25
 49
-1.5
  0
LTYPE
  2
dashed_double-dotted
 70
   64
  3
---------    -    -    ---------
 72
   65
 73
    6
 40
11
 49
6
 49
-1.5
 49
0.25
 49
-1.5
 49
0.25
 49
-1.5
  0
LTYPE
  2
double-dashed_double-dotted
 70
   64
  3
-----   ---------   -   -   ----
 72
   65
 73
    8
 40
18.5
 49
6
 49
-1.5
 49
6
 49
-1.5
 49
0.25
 49
-1.5
 49
0.25
 49
-1.5
  0
LTYPE
  2
dashed_triplicate-dotted
 70
   64
  3
-------    -    -    -    ------
 72
   65
 73
    8
 40
12.75
 49
6
 49
-1.5
 49
0.25
 49
-1.5
 49
0.25
 49
-1.5
 49
0.25
 49
-1.5
  0
LTYPE
  2
double-dashed_triplicate-dotted
 70
   64
  3
-----  ---------  -  -  -  -----
 72
   65
 73
   10
 40
20.25
 49
6
 49
-1.5
 49
6
 49
-1.5
 49
0.25
 49
-1.5
 49
0.25
 49
-1.5
 49
0.25
 49
-1.5
  0
LTYPE
  2
undefined
 70
   64
  3
--------------------------------
 72
   65
 73
    0
 40
0
  0
LTYPE
  2
BORDER
 70
   64
  3
----     --------     -     ----
 72
   65
 73
    6
 40
1.76
 49
0.5
 49
-0.25
 49
0.5
 49
-0.25
 49
0.01
 49
-0.25
  0
LTYPE
  2
BORDER2
 70
   64
  3
----     --------     -     ----
 72
   65
 73
    6
 40
0.885
 49
0.25
 49
-0.125
 49
0.25
 49
-0.125
 49
0.01
 49
-0.125
  0
LTYPE
  2
BORDERX2
 70
   64
  3
----     --------     -     ----
 72
   65
 73
    6
 40
3.5099999999999998
 49
1
 49
-0.5
 49
1
 49
-0.5
 49
0.01
 49
-0.5
  0
LTYPE
  2
CENTER
 70
   64
  3
----------    ----    ----------
 72
   65
 73
    4
 40
2
 49
1.25
 49
-0.25
 49
0.25
 49
-0.25
  0
LTYPE
  2
CENTER2_21
 70
   64
  3
----------    ----    ----------
 72
   65
 73
    4
 40
1.125
 49
0.75
 49
-0.125
 49
0.125
 49
-0.125
  0
LTYPE
  2
CENTERX2
 70
   64
  3
----------    ----    ----------
 72
   65
 73
    4
 40
4
 49
2.5
 49
-0.5
 49
0.5
 49
-0.5
  0
LTYPE
  2
DASHDOT
 70
   64
  3
--------        -        -------
 72
   65
 73
    4
 40
1.01
 49
0.5
 49
-0.25
 49
0.01
 49
-0.25
  0
LTYPE
  2
DASHDOT2
 70
   64
  3
--------        -        -------
 72
   65
 73
    4
 40
0.51
 49
0.25
 49
-0.125
 49
0.01
 49
-0.125
  0
LTYPE
  2
DASHDOTX2
 70
   64
  3
--------        -        -------
 72
   65
 73
    4
 40
2.0099999999999998
 49
1
 49
-0.5
 49
0.01
 49
-0.5
  0
LTYPE
  2
DASHED
 70
   64
  3
------     -----------     -----
 72
   65
 73
    2
 40
0.75
 49
0.5
 49
-0.25
  0
LTYPE
  2
DASHED2_27
 70
   64
  3
------     -----------     -----
 72
   65
 73
    2
 40
0.375
 49
0.25
 49
-0.125
  0
LTYPE
  2
DASHEDX2
 70
   64
  3
------     -----------     -----
 72
   65
 73
    2
 40
1.5
 49
1
 49
-0.5
  0
LTYPE
  2
DIVIDE
 70
   64
  3
------      -      -      ------
 72
   65
 73
    6
 40
1.27
 49
0.5
 49
-0.25
 49
0.01
 49
-0.25
 49
0.01
 49
-0.25
  0
LTYPE
  2
DIVIDE2
 70
   64
  3
------      -      -      ------
 72
   65
 73
    6
 40
0.645
 49
0.25
 49
-0.125
 49
0.01
 49
-0.125
 49
0.01
 49
-0.125
  0
LTYPE
  2
DIVIDEX2
 70
   64
  3
------      -      -      ------
 72
   65
 73
    6
 40
2.5199999999999996
 49
1
 49
-0.5
 49
0.01
 49
-0.5
 49
0.01
 49
-0.5
  0
LTYPE
  2
DOT_32
 70
   64
  3
-               -               
 72
   65
 73
    2
 40
0.26
 49
0.01
 49
-0.25
  0
ENDTAB
  0
TABLE
  2
STYLE
  5
3
100
AcDbSymbolTable
 70
     1
  0
STYLE
  5
10
100
AcDbSymbolTableRecord
100
AcDbTextStyleTableRecord
  2
STANDARD
 70
     0
 40
0.0
 41
1.0
 50
0.0
 71
     0
 42
0.2
  3
txt
  4
bigfont.shx
  0
STYLE
  5
26
100
AcDbSymbolTableRecord
100
AcDbTextStyleTableRecord
  2
TATEGAKI
 70
    68
 40
0.0
 41
1.0
 50
0.0
 71
     0
 42
1.0
  3
txt
  4
bigfont.shx
  0
ENDTAB
  0
TABLE
  2
LAYER
 70
    2
  0
LAYER
  2
_0-0_0
 70
   64
 62
    7
  6
CONTINUOUS
  0
LAYER
  2
ADD_LINE
 70
   64
 62
    7
  6
CONTINUOUS
  0
ENDTAB
  0
ENDSEC
  0
SECTION
  2
BLOCKS
  0
BLOCK
  2
-000-fsgret
 70
   64
 10
0
 20
0
 30
0
  0
ARC
  8
_0-0_0
  6
CONTINUOUS
 62
    7
 10
15615.431228119112
 20
5767.4680408823469
 40
240
 50
98.626926558678164
 51
141.37307344132302
  0
ARC
  8
_0-0_0
  6
CONTINUOUS
 62
    7
 10
15615.431228119112
 20
5767.4680408823469
 40
240
 50
158.62692655867801
 51
201.3730734413233
  0
ARC
  8
_0-0_0
  6
CONTINUOUS
 62
    7
 10
15615.431228119112
 20
5767.4680408823469
 40
240
 50
218.62692655867752
 51
261.37307344132313
  0
ARC
  8
_0-0_0
  6
CONTINUOUS
 62
    7
 10
15615.431228119112
 20
5767.4680408823469
 40
240
 50
278.62692655867818
 51
321.37307344132313
  0
ARC
  8
_0-0_0
  6
CONTINUOUS
 62
    7
 10
15615.431228119112
 20
5767.4680408823469
 40
240
 50
338.62692655867795
 51
21.373073441323299
  0
ARC
  8
_0-0_0
  6
CONTINUOUS
 62
    7
 10
15615.431228119112
 20
5767.4680408823469
 40
240
 50
38.62692655867756
 51
81.373073441323129
  0
CIRCLE
  8
_0-0_0
  6
CONTINUOUS
 62
    7
 10
15615.431228119112
 20
5767.4680408823469
 40
40
  0
ARC
  8
_0-0_0
  6
CONTINUOUS
 62
    7
 10
15906.742088379577
 20
5835.651087123706
 40
291.31457697585694
 50
145.2338306099856
 51
166.53824266396973
  0
ARC
  8
_0-0_0
  6
CONTINUOUS
 62
    7
 10
15324.120367858655
 20
5835.651087123706
 40
291.31457697585694
 50
13.46175733603021
 51
34.766169390014433
  0
ARC
  8
_0-0_0
  6
CONTINUOUS
 62
    7
 10
15615.431228119112
 20
6220.2954687596803
 40
218.5284735476128
 50
260.51797032882268
 51
279.4820296711793
  0
ARC
  8
_0-0_0
  6
CONTINUOUS
 62
    7
 10
15702.03840809692
 20
6053.8421693868841
 40
291.31457697585694
 50
205.23383060998589
 51
226.53824266396299
  0
ARC
  8
_0-0_0
  6
CONTINUOUS
 62
    7
 10
15410.727547836455
 20
5549.2769586191716
 40
291.31457697585694
 50
73.461757336037124
 51
94.766169390010688
  0
ARC
  8
_0-0_0
  6
CONTINUOUS
 62
    7
 10
15223.271172046976
 20
5993.88175482101
 40
218.5284735476128
 50
320.51797032882729
 51
339.48202967117311
  0
ARC
  8
_0-0_0
  6
CONTINUOUS
 62
    7
 10
15410.727547836455
 20
5985.6591231455241
 40
291.31457697585688
 50
265.23383060998947
 51
286.5382426639647
  0
ARC
  8
_0-0_0
  6
CONTINUOUS
 62
    7
 10
15702.03840809692
 20
5481.0939123778116
 40
291.31457697585688
 50
133.46175733603249
 51
154.76616939001411
  0
ARC
  8
_0-0_0
  6
CONTINUOUS
 62
    7
 10
15223.271172046983
 20
5541.0543269436785
 40
218.5284735476128
 50
20.517970328820791
 51
39.482029671172718
  0
ARC
  8
_0-0_0
  6
CONTINUOUS
 62
    7
 10
15324.120367858655
 20
5699.2849946409888
 40
291.31457697585694
 50
325.23383060998685
 51
346.5382426639743
  0
ARC
  8
_0-0_0
  6
CONTINUOUS
 62
    7
 10
15906.742088379577
 20
5699.2849946409888
 40
291.31457697585694
 50
193.4617573360257
 51
214.76616939001309
  0
ARC
  8
_0-0_0
  6
CONTINUOUS
 62
    7
 10
15615.43122811912
 20
5314.6406130050154
 40
218.5284735476128
 50
80.517970328829577
 51
99.482029671170423
  0
ARC
  8
_0-0_0
  6
CONTINUOUS
 62
    7
 10
15528.824048141312
 20
5481.0939123778116
 40
291.31457697585694
 50
25.233830609985933
 51
46.538242663971957
  0
ARC
  8
_0-0_0
  6
CONTINUOUS
 62
    7
 10
15820.134908401767
 20
5985.6591231455241
 40
291.31457697585694
 50
253.4617573360334
 51
274.7661693900107
  0
ARC
  8
_0-0_0
  6
CONTINUOUS
 62
    7
 10
16007.591284191256
 20
5541.0543269436857
 40
218.5284735476128
 50
140.51797032882729
 51
159.48202967117314
  0
ARC
  8
_0-0_0
  6
CONTINUOUS
 62
    7
 10
15820.134908401767
 20
5549.2769586191716
 40
291.31457697585694
 50
85.233830609986072
 51
106.5382426639728
  0
ARC
  8
_0-0_0
  6
CONTINUOUS
 62
    7
 10
15528.824048141312
 20
6053.8421693868841
 40
291.31457697585694
 50
313.46175733602331
 51
334.76616939001548
  0
ARC
  8
_0-0_0
  6
CONTINUOUS
 62
    7
 10
16007.591284191256
 20
5993.8817548210172
 40
218.5284735476128
 50
200.51797032882686
 51
219.48202967117689
  0
ARC
  8
_0-0_0
  6
CONTINUOUS
 62
    7
 10
16085.721345356087
 20
5719.9181318132087
 40
433.50926876261912
 50
143.90426528882611
 51
157.87143684185199
  0
ARC
  8
_0-0_0
  6
CONTINUOUS
 62
    7
 10
15318.063892862265
 20
6147.4040134914749
 40
451.45367188469032
 50
324.18315001139706
 51
337.59255211925142
  0
ARC
  8
_0-0_0
  6
CONTINUOUS
 62
    7
 10
16074.941736575272
 20
5766.1773531962208
 40
433.50926876261912
 50
148.8339065913591
 51
162.80107814438489
  0
ARC
  8
_0-0_0
  6
CONTINUOUS
 62
    7
 10
15273.38899903116
 20
6126.1153372144445
 40
451.45367188469032
 50
329.11279131392922
 51
342.52219342178444
  0
ARC
  8
_0-0_0
  6
CONTINUOUS
 62
    7
 10
15384.558205566504
 20
6164.7704706682307
 40
433.50926876261912
 50
317.19892185560718
 51
331.16609340863738
  0
ARC
  8
_0-0_0
  6
CONTINUOUS
 62
    7
 10
16097.050012285281
 20
5650.5744294911656
 40
451.45367188469032
 50
137.47780657822264
 51
150.88720868606771
  0
ARC
  8
_0-0_0
  6
CONTINUOUS
 62
    7
 10
15891.755715939113
 20
6150.9762750237596
 40
433.50926876261912
 50
203.90426528883006
 51
217.87143684185199
  0
ARC
  8
_0-0_0
  6
CONTINUOUS
 62
    7
 10
15137.713356399639
 20
5699.908360598798
 40
451.45367188469032
 50
24.183150011404564
 51
37.592552119247387
  0
ARC
  8
_0-0_0
  6
CONTINUOUS
 62
    7
 10
15846.304250671728
 20
6164.7704706682161
 40
433.50926876261912
 50
208.83390659135642
 51
222.80107814438392
  0
ARC
  8
_0-0_0
  6
CONTINUOUS
 62
    7
 10
15133.812443952937
 20
5650.5744294911756
 40
451.45367188469032
 50
29.112791313932249
 51
42.522193421777409
  0
ARC
  8
_0-0_0
  6
CONTINUOUS
 62
    7
 10
15155.920719662952
 20
5766.1773531962353
 40
433.50926876261912
 50
17.198921855602983
 51
31.166093408641913
  0
ARC
  8
_0-0_0
  6
CONTINUOUS
 62
    7
 10
15957.473457207065
 20
6126.115337214429
 40
451.45367188469032
 50
197.47780657822059
 51
210.88720868606811
  0
ARC
  8
_0-0_0
  6
CONTINUOUS
 62
    7
 10
15421.465598702143
 20
6198.5261840928979
 40
433.50926876261906
 50
263.90426528883472
 51
277.87143684184559
  0
ARC
  8
_0-0_0
  6
CONTINUOUS
 62
    7
 10
15435.08069165648
 20
5319.9723879896692
 40
451.45367188469027
 50
84.183150011396577
 51
97.592552119247387
  0
ARC
  8
_0-0_0
  6
CONTINUOUS
 62
    7
 10
15386.793742215576
 20
6166.0611583543432
 40
433.50926876261906
 50
268.83390659135932
 51
282.80107814438765
  0
ARC
  8
_0-0_0
  6
CONTINUOUS
 62
    7
 10
15475.854673040889
 20
5291.9271331590771
 40
451.45367188469027
 50
89.11279131393141
 51
102.52219342178201
  0
ARC
  8
_0-0_0
  6
CONTINUOUS
 62
    7
 10
15386.793742215559
 20
5368.8749234103507
 40
433.50926876261906
 50
77.19892185561234
 51
91.166093408640734
  0
ARC
  8
_0-0_0
  6
CONTINUOUS
 62
    7
 10
15475.854673040903
 20
6243.0089486056104
 40
451.45367188469027
 50
257.47780657821801
 51
270.88720868606862
  0
ARC
  8
_0-0_0
  6
CONTINUOUS
 62
    7
 10
15145.141110882145
 20
5815.0179499514861
 40
433.50926876261912
 50
323.904265288837
 51
337.87143684184429
  0
ARC
  8
_0-0_0
  6
CONTINUOUS
 62
    7
 10
15912.79856337596
 20
5387.5320682732199
 40
451.45367188469032
 50
144.18315001140229
 51
157.59255211925259
  0
ARC
  8
_0-0_0
  6
CONTINUOUS
 62
    7
 10
15155.92071966296
 20
5768.758728568474
 40
433.50926876261912
 50
328.83390659135142
 51
342.80107814438065
  0
ARC
  8
_0-0_0
  6
CONTINUOUS
 62
    7
 10
15957.473457207065
 20
5408.8207445502503
 40
451.45367188469032
 50
149.11279131393181
 51
162.52219342177943
  0
ARC
  8
_0-0_0
  6
CONTINUOUS
 62
    7
 10
15846.304250671719
 20
5370.165611096465
 40
433.50926876261912
 50
137.19892185560721
 51
151.16609340863741
  0
ARC
  8
_0-0_0
  6
CONTINUOUS
 62
    7
 10
15133.812443952953
 20
5884.3616522735292
 40
451.45367188469032
 50
317.47780657822261
 51
330.88720868606782
  0
ARC
  8
_0-0_0
  6
CONTINUOUS
 62
    7
 10
15339.106740299112
 20
5383.9598067409352
 40
433.50926876261912
 50
23.904265288830128
 51
37.871436841851988
  0
ARC
  8
_0-0_0
  6
CONTINUOUS
 62
    7
 10
16093.149099838593
 20
5835.0277211658977
 40
451.45367188469032
 50
204.18315001138743
 51
217.59255211923943
  0
ARC
  8
_0-0_0
  6
CONTINUOUS
 62
    7
 10
15384.558205566504
 20
5370.1656110964796
 40
433.50926876261912
 50
28.833906591374049
 51
42.801078144402318
  0
ARC
  8
_0-0_0
  6
CONTINUOUS
 62
    7
 10
16097.050012285295
 20
5884.361652273521
 40
451.45367188469032
 50
209.11279131393232
 51
222.52219342177739
  0
ARC
  8
_0-0_0
  6
CONTINUOUS
 62
    7
 10
16074.94173657528
 20
5768.758728568464
 40
433.50926876261912
 50
197.1989218556192
 51
211.16609340864863
  0
ARC
  8
_0-0_0
  6
CONTINUOUS
 62
    7
 10
15273.38899903116
 20
5408.8207445502667
 40
451.45367188469032
 50
17.477806578220608
 51
30.887208686068121
  0
ARC
  8
_0-0_0
  6
CONTINUOUS
 62
    7
 10
15809.396857536089
 20
5336.4098976717978
 40
433.50926876261912
 50
83.904265288825016
 51
97.871436841851192
  0
ARC
  8
_0-0_0
  6
CONTINUOUS
 62
    7
 10
15795.781764581743
 20
6214.9636937750256
 40
451.45367188469032
 50
264.18315001139734
 51
277.59255211924972
  0
ARC
  8
_0-0_0
  6
CONTINUOUS
 62
    7
 10
15844.068714022656
 20
5368.8749234103516
 40
433.50926876261912
 50
88.833906591358996
 51
102.80107814438729
  0
ARC
  8
_0-0_0
  6
CONTINUOUS
 62
    7
 10
15755.007783197345
 20
6243.0089486056168
 40
451.45367188469032
 50
269.11279131392808
 51
282.52219342178512
  0
ARC
  8
_0-0_0
  6
CONTINUOUS
 62
    7
 10
15844.068714022673
 20
6166.061158354345
 40
433.50926876261912
 50
257.19892185560627
 51
271.16609340863772
  0
ARC
  8
_0-0_0
  6
CONTINUOUS
 62
    7
 10
15755.007783197329
 20
5291.9271331590826
 40
451.45367188469032
 50
77.477806578221191
 51
90.887208686068604
  0
ENDBLK
  0
ENDSEC
  0
SECTION
  2
ENTITIES
  0
INSERT
  2
-000-fsgret
  8
_0-0_0
 10
-1741.928903514892
 20
-572.43350511029337
 41
0.125
 42
0.125
 50
0
  0
ENDSEC
  0
EOF
