  0
SECTION
  2
HEADER
  9
$ACADVER
  1
AC1009
  9
$INSBASE
 10
0
 20
0
 30
0
  9
$EXTMIN
 10
0
 20
0
  9
$EXTMAX
 10
420
 20
297
  9
$LIMMIN
 10
0
 20
0
  9
$LIMMAX
 10
420
 20
297
  9
$LTSCALE
 40
1
  0
ENDSEC
  0
SECTION
  2
TABLES
  0
TABLE
  2
LTYPE
 70
     9
  0
LTYPE
  2
CONTINUOUS
 70
    64
  3
実線
 72
    65
 73
     0
 40
0.0
  0
LTYPE
  2
DASHED1
 70
    64
  3
--  --  --  --  --  --  --  --  
 72
    65
 73
     2
 40
2.5
 49
1.25
 49
-1.25
  0
LTYPE
  2
DASHED2
 70
    64
  3
----    ----    ----    ----    
 72
    65
 73
     2
 40
5.0
 49
2.5
 49
-2.5
  0
LTYPE
  2
DASHED3
 70
    64
  3
------  ------  ------  ------  
 72
    65
 73
     2
 40
5.0
 49
3.75
 49
-1.25
  0
LTYPE
  2
CENTER1
 70
    64
  3
----- - ----- - ----- - ----- - 
 72
    65
 73
     4
 40
10.0
 49
6.25
 49
-1.25
 49
1.25
 49
-1.25
  0
LTYPE
  2
CENTER2
 70
    64
  3
----------  --  ----------  --  
 72
    65
 73
     4
 40
20.0
 49
12.5
 49
-2.5
 49
2.5
 49
-2.5
  0
LTYPE
  2
PHANTOM1
 70
    64
  3
--- - - --- - - --- - - --- - - 
 72
    65
 73
     6
 40
10.0
 49
3.25
 49
-1.25
 49
1.25
 49
-1.25
 49
1.25
 49
-1.25
  0
LTYPE
  2
PHANTOM2
 70
    64
  3
--------  -  -  --------  -  -  
 72
    65
 73
     6
 40
20.0
 49
10.0
 49
-2.5
 49
1.25
 49
-2.5
 49
1.25
 49
-2.5
  0
LTYPE
  2
DOT
 70
    64
  3
-   -   -   -   -   -   -   -   
 72
    65
 73
     2
 40
2.5
 49
0.625
 49
-1.875
  0
LTYPE
  2
DUMMY
 70
    64
  3
ダミー
 72
    65
 73
     0
 40
0.0
  0
LTYPE
  2
RAND1
 70
    64
  3
ランダム線1
 72
    65
 73
     4
 40
10.0
 49
1.0
 49
-2.0
 49
3.0
 49
-4.0
  0
LTYPE
  2
RAND2
 70
    64
  3
ランダム線2
 72
    65
 73
     4
 40
14.0
 49
2.0
 49
-3.0
 49
4.0
 49
-5.0
  0
LTYPE
  2
RAND3
 70
    64
  3
ランダム線3
 72
    65
 73
     4
 40
18.0
 49
3.0
 49
-4.0
 49
5.0
 49
-6.0
  0
LTYPE
  2
RAND4
 70
    64
  3
ランダム線4
 72
    65
 73
     4
 40
22.0
 49
4.0
 49
-5.0
 49
6.0
 49
-7.0
  0
LTYPE
  2
RAND5
 70
    64
  3
ランダム線5
 72
    65
 73
     4
 40
26.0
 49
5.0
 49
-6.0
 49
7.0
 49
-8.0
  0
LTYPE
  2
LONG1
 70
    64
  3
----------  --  ----------  --  
 72
    65
 73
     4
 40
40.0
 49
32.5
 49
-2.5
 49
2.5
 49
-2.5
  0
LTYPE
  2
LONG2
 70
    64
  3
--------  -  -  --------  -  -  
 72
    65
 73
     6
 40
40.0
 49
30.0
 49
-2.5
 49
1.25
 49
-2.5
 49
1.25
 49
-2.5
  0
LTYPE
  2
LONG3
 70
    64
  3
+++++++++++++++..+++++++++++++++
 72
    65
 73
     2
 40
40.0
 49
37.5
 49
-2.5
  0
LTYPE
  2
LONG4
 70
    64
  3
+++++++++++++++..+++++++++++++++
 72
    65
 73
     2
 40
80.0
 49
75.0
 49
-5.0
  0
LTYPE
  2
LONG5
 70
    64
  3
----------  --  ----------  --  
 72
    65
 73
     4
 40
60.0
 49
37.5
 49
-7.5
 49
7.5
 49
-7.5
  0
LTYPE
  2
dashed
 70
   64
  3
-------   -------------   ------
 72
   65
 73
    2
 40
7.5
 49
6
 49
-1.5
  0
LTYPE
  2
dashed_spaced
 70
   64
  3
----        --------        ----
 72
   65
 73
    2
 40
12
 49
6
 49
-6
  0
LTYPE
  2
long_dashed_dotted
 70
   64
  3
------------- --- --------------
 72
   65
 73
    4
 40
15.25
 49
12
 49
-1.5
 49
0.25
 49
-1.5
  0
LTYPE
  2
long_dashed_double-dotted
 70
   64
  3
----------- --- --- ------------
 72
   65
 73
    6
 40
17
 49
12
 49
-1.5
 49
0.25
 49
-1.5
 49
0.25
 49
-1.5
  0
LTYPE
  2
long_dashed_triplicate-dotted
 70
   64
  3
--------- --- --- --- ----------
 72
   65
 73
    8
 40
18.75
 49
12
 49
-1.5
 49
0.25
 49
-1.5
 49
0.25
 49
-1.5
 49
0.25
 49
-1.5
  0
LTYPE
  2
dotted
 70
   64
  3
   -       -       -       -    
 72
   65
 73
    2
 40
1.75
 49
0.25
 49
-1.5
  0
LTYPE
  2
chain
 70
   64
  3
-------------- -- --------------
 72
   65
 73
    4
 40
18.5
 49
12
 49
-1.5
 49
3.5
 49
-1.5
  0
LTYPE
  2
chain_double_dash
 70
   64
  3
------------ -- -- -------------
 72
   65
 73
    6
 40
23.5
 49
12
 49
-1.5
 49
3.5
 49
-1.5
 49
3.5
 49
-1.5
  0
LTYPE
  2
dashed_dotted
 70
   64
  3
-----------     -     ----------
 72
   65
 73
    4
 40
9.25
 49
6
 49
-1.5
 49
0.25
 49
-1.5
  0
LTYPE
  2
double-dashed_dotted
 70
   64
  3
------   -----------   -   -----
 72
   65
 73
    6
 40
16.75
 49
6
 49
-1.5
 49
6
 49
-1.5
 49
0.25
 49
-1.5
  0
LTYPE
  2
dashed_double-dotted
 70
   64
  3
---------    -    -    ---------
 72
   65
 73
    6
 40
11
 49
6
 49
-1.5
 49
0.25
 49
-1.5
 49
0.25
 49
-1.5
  0
LTYPE
  2
double-dashed_double-dotted
 70
   64
  3
-----   ---------   -   -   ----
 72
   65
 73
    8
 40
18.5
 49
6
 49
-1.5
 49
6
 49
-1.5
 49
0.25
 49
-1.5
 49
0.25
 49
-1.5
  0
LTYPE
  2
dashed_triplicate-dotted
 70
   64
  3
-------    -    -    -    ------
 72
   65
 73
    8
 40
12.75
 49
6
 49
-1.5
 49
0.25
 49
-1.5
 49
0.25
 49
-1.5
 49
0.25
 49
-1.5
  0
LTYPE
  2
double-dashed_triplicate-dotted
 70
   64
  3
-----  ---------  -  -  -  -----
 72
   65
 73
   10
 40
20.25
 49
6
 49
-1.5
 49
6
 49
-1.5
 49
0.25
 49
-1.5
 49
0.25
 49
-1.5
 49
0.25
 49
-1.5
  0
LTYPE
  2
undefined
 70
   64
  3
--------------------------------
 72
   65
 73
    0
 40
0
  0
LTYPE
  2
ACAD_ISO10W100
 70
   64
  3
-----------     -     ----------
 72
   65
 73
    4
 40
18.009999999999998
 49
12
 49
-3
 49
0.01
 49
-3
  0
LTYPE
  2
ACAD_ISO02W100
 70
   64
  3
-------   -------------   ------
 72
   65
 73
    2
 40
15
 49
12
 49
-3
  0
LTYPE
  2
DOT_19
 70
   64
  3
-               -               
 72
   65
 73
    2
 40
6.3599999999999985
 49
0.01
 49
-6.3499999999999988
  0
LTYPE
  2
ACAD_ISO03W100
 70
   64
  3
---          ------          ---
 72
   65
 73
    2
 40
30
 49
12
 49
-18
  0
LTYPE
  2
BORDER
 70
   64
  3
----     --------     -     ----
 72
   65
 73
    6
 40
1.76
 49
0.5
 49
-0.25
 49
0.5
 49
-0.25
 49
0.01
 49
-0.25
  0
LTYPE
  2
BORDER2
 70
   64
  3
----     --------     -     ----
 72
   65
 73
    6
 40
0.885
 49
0.25
 49
-0.125
 49
0.25
 49
-0.125
 49
0.01
 49
-0.125
  0
LTYPE
  2
BORDERX2
 70
   64
  3
----     --------     -     ----
 72
   65
 73
    6
 40
3.5099999999999998
 49
1
 49
-0.5
 49
1
 49
-0.5
 49
0.01
 49
-0.5
  0
LTYPE
  2
CENTER
 70
   64
  3
----------    ----    ----------
 72
   65
 73
    4
 40
2
 49
1.25
 49
-0.25
 49
0.25
 49
-0.25
  0
LTYPE
  2
CENTER2_25
 70
   64
  3
----------    ----    ----------
 72
   65
 73
    4
 40
1.125
 49
0.75
 49
-0.125
 49
0.125
 49
-0.125
  0
LTYPE
  2
CENTERX2
 70
   64
  3
----------    ----    ----------
 72
   65
 73
    4
 40
4
 49
2.5
 49
-0.5
 49
0.5
 49
-0.5
  0
LTYPE
  2
DASHDOT
 70
   64
  3
--------        -        -------
 72
   65
 73
    4
 40
1.01
 49
0.5
 49
-0.25
 49
0.01
 49
-0.25
  0
LTYPE
  2
DASHDOT2
 70
   64
  3
--------        -        -------
 72
   65
 73
    4
 40
0.51
 49
0.25
 49
-0.125
 49
0.01
 49
-0.125
  0
LTYPE
  2
DASHDOTX2
 70
   64
  3
--------        -        -------
 72
   65
 73
    4
 40
2.0099999999999998
 49
1
 49
-0.5
 49
0.01
 49
-0.5
  0
LTYPE
  2
DASHED
 70
   64
  3
------     -----------     -----
 72
   65
 73
    2
 40
0.75
 49
0.5
 49
-0.25
  0
LTYPE
  2
DASHED2_31
 70
   64
  3
------     -----------     -----
 72
   65
 73
    2
 40
0.375
 49
0.25
 49
-0.125
  0
LTYPE
  2
DASHEDX2
 70
   64
  3
------     -----------     -----
 72
   65
 73
    2
 40
1.5
 49
1
 49
-0.5
  0
ENDTAB
  0
TABLE
  2
STYLE
  5
3
100
AcDbSymbolTable
 70
     1
  0
STYLE
  5
10
100
AcDbSymbolTableRecord
100
AcDbTextStyleTableRecord
  2
STANDARD
 70
     0
 40
0.0
 41
1.0
 50
0.0
 71
     0
 42
0.2
  3
txt
  4
bigfont.shx
  0
STYLE
  5
26
100
AcDbSymbolTableRecord
100
AcDbTextStyleTableRecord
  2
TATEGAKI
 70
    68
 40
0.0
 41
1.0
 50
0.0
 71
     0
 42
1.0
  3
txt
  4
bigfont.shx
  0
ENDTAB
  0
TABLE
  2
LAYER
 70
    2
  0
LAYER
  2
_0-0_0
 70
   64
 62
    7
  6
CONTINUOUS
  0
LAYER
  2
ADD_LINE
 70
   64
 62
    7
  6
CONTINUOUS
  0
ENDTAB
  0
ENDSEC
  0
SECTION
  2
BLOCKS
  0
BLOCK
  2
-000-trtrztr
 70
   64
 10
0
 20
0
 30
0
  0
ARC
  8
_0-0_0
  6
CONTINUOUS
 62
    7
 10
8837.9558888491047
 20
3218.3059595699751
 40
25.375327564838255
 50
64.592214898888514
 51
155.53924048501412
  0
ARC
  8
_0-0_0
  6
CONTINUOUS
 62
    7
 10
8944.4608672181366
 20
3459.4704621758647
 40
238.27075682355823
 50
246.3406741689287
 51
272.24445311913234
  0
ARC
  8
_0-0_0
  6
CONTINUOUS
 62
    7
 10
8954.9966022494646
 20
3095.432191547291
 40
125.9560650491168
 50
24.101377356664379
 51
90.547837244936559
  0
ARC
  8
_0-0_0
  6
CONTINUOUS
 62
    7
 10
9014.5647277047592
 20
3120.5514187123722
 40
61.339204902695265
 50
319.87709379286633
 51
25.404854678654374
  0
ARC
  8
_0-0_0
  6
CONTINUOUS
 62
    7
 10
9057.0650001093436
 20
3037.0893334789489
 40
26.023243760702705
 50
133.35541715602869
 51
198.5790541351808
  0
LINE
  8
_0-0_0
  6
CONTINUOUS
 62
    7
 10
9039.1994722538802
 20
3056.0110704572089
 11
9061.4685988355832
 21
3081.0226326060665
  0
ARC
  8
_0-0_0
  6
CONTINUOUS
 62
    7
 10
9049.8366021072234
 20
3035.9647217038673
 40
18.85386563410152
 50
202.34110145269034
 51
318.6525234213097
  0
LINE
  8
_0-0_0
  6
CONTINUOUS
 62
    7
 10
9063.9905192404076
 20
3023.5094064073478
 11
9106.3447913503514
 21
3066.5338724499056
  0
ARC
  8
_0-0_0
  6
CONTINUOUS
 62
    7
 10
9154.9795803717116
 20
3003.6337382133074
 40
79.509556596262513
 50
71.840401276749176
 51
127.71142655988839
  0
ARC
  8
_0-0_0
  6
CONTINUOUS
 62
    7
 10
9144.476008051488
 20
2963.3809284024414
 40
121.0582287334644
 50
58.444143870981499
 51
73.054474414710967
  0
ARC
  8
_0-0_0
  6
CONTINUOUS
 62
    7
 10
9202.4488874437284
 20
3057.2677944005618
 40
10.718775226360217
 50
308.1898535785075
 51
59.869807148169343
  0
ARC
  8
_0-0_0
  6
CONTINUOUS
 62
    7
 10
9255.0115083094479
 20
3000.6309482268448
 40
66.591997015330847
 50
133.6147219378656
 51
168.12781214022431
  0
ARC
  8
_0-0_0
  6
CONTINUOUS
 62
    7
 10
9243.1114404092568
 20
3003.4086035915593
 40
54.375709709859905
 50
168.4123625452863
 51
206.67823286357421
  0
LINE
  8
_0-0_0
  6
CONTINUOUS
 62
    7
 10
9194.5244587081761
 20
2978.9950209861745
 11
9220.0069710907592
 21
2921.1137024534969
  0
ARC
  8
_0-0_0
  6
CONTINUOUS
 62
    7
 10
9161.4007995701922
 20
2896.907128993791
 40
63.408528913377751
 50
306.12871503026832
 51
22.44248321377097
  0
ARC
  8
_0-0_0
  6
CONTINUOUS
 62
    7
 10
9488.5374442355369
 20
2353.1038304092031
 40
571.48848734565422
 50
120.4649323005335
 51
142.99474068777329
  0
LINE
  8
_0-0_0
  6
CONTINUOUS
 62
    7
 10
8924.0406455659522
 20
2566.9309604946143
 11
9032.1580167444718
 21
2697.0760812253834
  0
ARC
  8
_0-0_0
  6
CONTINUOUS
 62
    7
 10
8915.2779012234569
 20
2576.6634850782743
 40
13.096095722906991
 50
214.64156832586323
 51
311.99850391139881
  0
LINE
  8
_0-0_0
  6
CONTINUOUS
 62
    7
 10
8904.5034266224393
 20
2569.2191301528528
 11
8882.7319392476802
 21
2600.2518392163711
  0
ARC
  8
_0-0_0
  6
CONTINUOUS
 62
    7
 10
8911.7390403657755
 20
2617.3057762599951
 40
33.648903161374278
 50
139.11274414070499
 51
210.4522426037712
  0
ARC
  8
_0-0_0
  6
CONTINUOUS
 62
    7
 10
8912.5635103653276
 20
2820.9192211225313
 40
39.099126725958882
 50
42.17016872881991
 51
128.20483349630152
  0
ARC
  8
_0-0_0
  6
CONTINUOUS
 62
    7
 10
8875.7809493390232
 20
2794.2019003477408
 40
84.438759731113606
 50
341.59666288956538
 51
38.849015142871053
  0
ARC
  8
_0-0_0
  6
CONTINUOUS
 62
    7
 10
8711.3336204584793
 20
2829.7413375605038
 40
252.35260315415945
 50
323.05694139244929
 51
345.73133087526833
  0
LINE
  8
_0-0_0
  6
CONTINUOUS
 62
    7
 10
8886.3005004437673
 20
2639.3314288178576
 11
8913.0222010799844
 21
2678.072116010565
  0
ARC
  8
_0-0_0
  6
CONTINUOUS
 62
    7
 10
8823.3508798493676
 20
2838.704004393579
 40
30.497512120150407
 50
223.70036926799679
 51
309.29508619283212
  0
LINE
  8
_0-0_0
  6
CONTINUOUS
 62
    7
 10
8842.6653966148242
 20
2815.1021466778025
 11
8888.3816901476312
 21
2851.6434994979672
  0
ARC
  8
_0-0_0
  6
CONTINUOUS
 62
    7
 10
8916.8045310167363
 20
2979.9784045179322
 40
199.23999398249825
 50
210.47957290382371
 51
234.56957028261959
  0
ARC
  8
_0-0_0
  6
CONTINUOUS
 62
    7
 10
8847.9815307092322
 20
2920.8360876724423
 40
111.09580044357185
 50
115.62525864614618
 51
202.16763406027201
  0
ARC
  8
_0-0_0
  6
CONTINUOUS
 62
    7
 10
8835.3644074289041
 20
2928.7684140414258
 40
98.806974022448244
 50
82.345624616986214
 51
111.0128578598267
  0
ARC
  8
_0-0_0
  6
CONTINUOUS
 62
    7
 10
8889.6872641459831
 20
3258.5994543100583
 40
235.52919619894783
 50
259.93506608412042
 51
273.50325686691451
  0
ARC
  8
_0-0_0
  6
CONTINUOUS
 62
    7
 10
8904.5815039494883
 20
3035.6404254441222
 40
12.140430097889311
 50
267.62940524327502
 51
89.019229364599198
  0
ARC
  8
_0-0_0
  6
CONTINUOUS
 62
    7
 10
8907.2002778238711
 20
3163.2668092794506
 40
115.51289578233168
 50
200.18955265008282
 51
268.80404412601177
  0
ARC
  8
_0-0_0
  6
CONTINUOUS
 62
    7
 10
8940.3864196789436
 20
3155.740935151447
 40
145.24771146260929
 50
149.79557786709361
 51
192.86527430458159
  0
ARC
  8
_0-0_0
  6
CONTINUOUS
 62
    7
 10
8865.2234670461676
 20
2766.7154232475937
 40
162.81508065785991
 50
38.431215927861153
 51
126.94974949038219
  0
ARC
  8
_0-0_0
  6
CONTINUOUS
 62
    7
 10
8904.5354412819834
 20
2820.0940886936314
 40
100.3572719244452
 50
345.41322393645714
 51
28.458893077716311
  0
ARC
  8
_0-0_0
  6
CONTINUOUS
 62
    7
 10
9132.0488553073355
 20
3315.6753522623694
 40
317.22303200032258
 50
201.959343441074
 51
230.9262874750722
  0
ARC
  8
_0-0_0
  6
CONTINUOUS
 62
    7
 10
8752.6918824395598
 20
2877.8515897808329
 40
262.44698280635117
 50
341.55606330235508
 51
46.87550461530401
  0
ARC
  8
_0-0_0
  6
CONTINUOUS
 62
    7
 10
9194.6486876906474
 20
3430.2305888915239
 40
408.14696444659336
 50
213.55272720383439
 51
234.59075741775118
  0
ARC
  8
_0-0_0
  6
CONTINUOUS
 62
    7
 10
8792.8198034850393
 20
2892.3538223438177
 40
263.54297311753106
 50
337.4349361561728
 51
51.142416747887069
  0
ARC
  8
_0-0_0
  6
CONTINUOUS
 62
    7
 10
9218.7505457087118
 20
2887.2011733089198
 40
162.46949666736063
 50
102.74014367093578
 51
178.182584659252
  0
ARC
  8
_0-0_0
  6
CONTINUOUS
 62
    7
 10
9202.1682291504312
 20
2825.361620346931
 40
151.44896423163752
 50
98.531403657683882
 51
168.37112507183363
  0
ARC
  8
_0-0_0
  6
CONTINUOUS
 62
    7
 10
8846.4343071175517
 20
3200.2777382536678
 40
9.1798497252001194
 50
28.415415474253152
 51
200.58422650580491
  0
ARC
  8
_0-0_0
  6
CONTINUOUS
 62
    7
 10
8864.1296865393833
 20
2835.5892503680279
 40
156.81159837927231
 50
15.635128361669961
 51
128.10850683989383
  0
ARC
  8
_0-0_0
  6
CONTINUOUS
 62
    7
 10
9181.5766788191286
 20
2733.6052513202976
 40
156.39066662404824
 50
84.412972306669445
 51
158.38133359880052
  0
ENDBLK
  0
ENDSEC
  0
SECTION
  2
ENTITIES
  0
INSERT
  2
-000-trtrztr
  8
_0-0_0
 10
1332.6169012106579
 20
-214.45843293114751
 41
-0.125
 42
0.125
 50
0
  0
ENDSEC
  0
EOF
