  0
SECTION
  2
HEADER
  9
$ACADVER
  1
AC1009
  9
$INSBASE
 10
0
 20
0
 30
0
  9
$EXTMIN
 10
0
 20
0
  9
$EXTMAX
 10
840
 20
594
  9
$LIMMIN
 10
0
 20
0
  9
$LIMMAX
 10
840
 20
594
  9
$LTSCALE
 40
2
  0
ENDSEC
  0
SECTION
  2
TABLES
  0
TABLE
  2
LTYPE
 70
     9
  0
LTYPE
  2
CONTINUOUS
 70
    64
  3
実線
 72
    65
 73
     0
 40
0.0
  0
LTYPE
  2
DASHED1
 70
    64
  3
--  --  --  --  --  --  --  --  
 72
    65
 73
     2
 40
2.5
 49
1.25
 49
-1.25
  0
LTYPE
  2
DASHED2
 70
    64
  3
----    ----    ----    ----    
 72
    65
 73
     2
 40
5.0
 49
2.5
 49
-2.5
  0
LTYPE
  2
DASHED3
 70
    64
  3
------  ------  ------  ------  
 72
    65
 73
     2
 40
5.0
 49
3.75
 49
-1.25
  0
LTYPE
  2
CENTER1
 70
    64
  3
----- - ----- - ----- - ----- - 
 72
    65
 73
     4
 40
10.0
 49
6.25
 49
-1.25
 49
1.25
 49
-1.25
  0
LTYPE
  2
CENTER2
 70
    64
  3
----------  --  ----------  --  
 72
    65
 73
     4
 40
20.0
 49
12.5
 49
-2.5
 49
2.5
 49
-2.5
  0
LTYPE
  2
PHANTOM1
 70
    64
  3
--- - - --- - - --- - - --- - - 
 72
    65
 73
     6
 40
10.0
 49
3.25
 49
-1.25
 49
1.25
 49
-1.25
 49
1.25
 49
-1.25
  0
LTYPE
  2
PHANTOM2
 70
    64
  3
--------  -  -  --------  -  -  
 72
    65
 73
     6
 40
20.0
 49
10.0
 49
-2.5
 49
1.25
 49
-2.5
 49
1.25
 49
-2.5
  0
LTYPE
  2
DOT
 70
    64
  3
-   -   -   -   -   -   -   -   
 72
    65
 73
     2
 40
2.5
 49
0.625
 49
-1.875
  0
LTYPE
  2
DUMMY
 70
    64
  3
ダミー
 72
    65
 73
     0
 40
0.0
  0
LTYPE
  2
RAND1
 70
    64
  3
ランダム線1
 72
    65
 73
     4
 40
10.0
 49
1.0
 49
-2.0
 49
3.0
 49
-4.0
  0
LTYPE
  2
RAND2
 70
    64
  3
ランダム線2
 72
    65
 73
     4
 40
14.0
 49
2.0
 49
-3.0
 49
4.0
 49
-5.0
  0
LTYPE
  2
RAND3
 70
    64
  3
ランダム線3
 72
    65
 73
     4
 40
18.0
 49
3.0
 49
-4.0
 49
5.0
 49
-6.0
  0
LTYPE
  2
RAND4
 70
    64
  3
ランダム線4
 72
    65
 73
     4
 40
22.0
 49
4.0
 49
-5.0
 49
6.0
 49
-7.0
  0
LTYPE
  2
RAND5
 70
    64
  3
ランダム線5
 72
    65
 73
     4
 40
26.0
 49
5.0
 49
-6.0
 49
7.0
 49
-8.0
  0
LTYPE
  2
LONG1
 70
    64
  3
----------  --  ----------  --  
 72
    65
 73
     4
 40
40.0
 49
32.5
 49
-2.5
 49
2.5
 49
-2.5
  0
LTYPE
  2
LONG2
 70
    64
  3
--------  -  -  --------  -  -  
 72
    65
 73
     6
 40
40.0
 49
30.0
 49
-2.5
 49
1.25
 49
-2.5
 49
1.25
 49
-2.5
  0
LTYPE
  2
LONG3
 70
    64
  3
+++++++++++++++..+++++++++++++++
 72
    65
 73
     2
 40
40.0
 49
37.5
 49
-2.5
  0
LTYPE
  2
LONG4
 70
    64
  3
+++++++++++++++..+++++++++++++++
 72
    65
 73
     2
 40
80.0
 49
75.0
 49
-5.0
  0
LTYPE
  2
LONG5
 70
    64
  3
----------  --  ----------  --  
 72
    65
 73
     4
 40
60.0
 49
37.5
 49
-7.5
 49
7.5
 49
-7.5
  0
LTYPE
  2
dashed
 70
   64
  3
-------   -------------   ------
 72
   65
 73
    2
 40
7.5
 49
6
 49
-1.5
  0
LTYPE
  2
dashed_spaced
 70
   64
  3
----        --------        ----
 72
   65
 73
    2
 40
12
 49
6
 49
-6
  0
LTYPE
  2
long_dashed_dotted
 70
   64
  3
------------- --- --------------
 72
   65
 73
    4
 40
15.25
 49
12
 49
-1.5
 49
0.25
 49
-1.5
  0
LTYPE
  2
long_dashed_double-dotted
 70
   64
  3
----------- --- --- ------------
 72
   65
 73
    6
 40
17
 49
12
 49
-1.5
 49
0.25
 49
-1.5
 49
0.25
 49
-1.5
  0
LTYPE
  2
long_dashed_triplicate-dotted
 70
   64
  3
--------- --- --- --- ----------
 72
   65
 73
    8
 40
18.75
 49
12
 49
-1.5
 49
0.25
 49
-1.5
 49
0.25
 49
-1.5
 49
0.25
 49
-1.5
  0
LTYPE
  2
dotted
 70
   64
  3
   -       -       -       -    
 72
   65
 73
    2
 40
1.75
 49
0.25
 49
-1.5
  0
LTYPE
  2
chain
 70
   64
  3
-------------- -- --------------
 72
   65
 73
    4
 40
18.5
 49
12
 49
-1.5
 49
3.5
 49
-1.5
  0
LTYPE
  2
chain_double_dash
 70
   64
  3
------------ -- -- -------------
 72
   65
 73
    6
 40
23.5
 49
12
 49
-1.5
 49
3.5
 49
-1.5
 49
3.5
 49
-1.5
  0
LTYPE
  2
dashed_dotted
 70
   64
  3
-----------     -     ----------
 72
   65
 73
    4
 40
9.25
 49
6
 49
-1.5
 49
0.25
 49
-1.5
  0
LTYPE
  2
double-dashed_dotted
 70
   64
  3
------   -----------   -   -----
 72
   65
 73
    6
 40
16.75
 49
6
 49
-1.5
 49
6
 49
-1.5
 49
0.25
 49
-1.5
  0
LTYPE
  2
dashed_double-dotted
 70
   64
  3
---------    -    -    ---------
 72
   65
 73
    6
 40
11
 49
6
 49
-1.5
 49
0.25
 49
-1.5
 49
0.25
 49
-1.5
  0
LTYPE
  2
double-dashed_double-dotted
 70
   64
  3
-----   ---------   -   -   ----
 72
   65
 73
    8
 40
18.5
 49
6
 49
-1.5
 49
6
 49
-1.5
 49
0.25
 49
-1.5
 49
0.25
 49
-1.5
  0
LTYPE
  2
dashed_triplicate-dotted
 70
   64
  3
-------    -    -    -    ------
 72
   65
 73
    8
 40
12.75
 49
6
 49
-1.5
 49
0.25
 49
-1.5
 49
0.25
 49
-1.5
 49
0.25
 49
-1.5
  0
LTYPE
  2
double-dashed_triplicate-dotted
 70
   64
  3
-----  ---------  -  -  -  -----
 72
   65
 73
   10
 40
20.25
 49
6
 49
-1.5
 49
6
 49
-1.5
 49
0.25
 49
-1.5
 49
0.25
 49
-1.5
 49
0.25
 49
-1.5
  0
LTYPE
  2
undefined
 70
   64
  3
--------------------------------
 72
   65
 73
    0
 40
0
  0
LTYPE
  2
DOT_17
 70
   64
  3
-               -               
 72
   65
 73
    2
 40
0.26
 49
0.01
 49
-0.25
  0
LTYPE
  2
BORDER
 70
   64
  3
----     --------     -     ----
 72
   65
 73
    6
 40
1.76
 49
0.5
 49
-0.25
 49
0.5
 49
-0.25
 49
0.01
 49
-0.25
  0
LTYPE
  2
BORDER2
 70
   64
  3
----     --------     -     ----
 72
   65
 73
    6
 40
0.885
 49
0.25
 49
-0.125
 49
0.25
 49
-0.125
 49
0.01
 49
-0.125
  0
LTYPE
  2
BORDERX2
 70
   64
  3
----     --------     -     ----
 72
   65
 73
    6
 40
3.5099999999999998
 49
1
 49
-0.5
 49
1
 49
-0.5
 49
0.01
 49
-0.5
  0
LTYPE
  2
CENTER
 70
   64
  3
----------    ----    ----------
 72
   65
 73
    4
 40
2
 49
1.25
 49
-0.25
 49
0.25
 49
-0.25
  0
LTYPE
  2
CENTER2_22
 70
   64
  3
----------    ----    ----------
 72
   65
 73
    4
 40
1.125
 49
0.75
 49
-0.125
 49
0.125
 49
-0.125
  0
LTYPE
  2
CENTERX2
 70
   64
  3
----------    ----    ----------
 72
   65
 73
    4
 40
4
 49
2.5
 49
-0.5
 49
0.5
 49
-0.5
  0
LTYPE
  2
DASHDOT
 70
   64
  3
--------        -        -------
 72
   65
 73
    4
 40
1.01
 49
0.5
 49
-0.25
 49
0.01
 49
-0.25
  0
LTYPE
  2
DASHDOT2
 70
   64
  3
--------        -        -------
 72
   65
 73
    4
 40
0.51
 49
0.25
 49
-0.125
 49
0.01
 49
-0.125
  0
LTYPE
  2
DASHDOTX2
 70
   64
  3
--------        -        -------
 72
   65
 73
    4
 40
2.0099999999999998
 49
1
 49
-0.5
 49
0.01
 49
-0.5
  0
LTYPE
  2
DASHED
 70
   64
  3
------     -----------     -----
 72
   65
 73
    2
 40
0.75
 49
0.5
 49
-0.25
  0
LTYPE
  2
DASHED2_28
 70
   64
  3
------     -----------     -----
 72
   65
 73
    2
 40
0.375
 49
0.25
 49
-0.125
  0
LTYPE
  2
DASHEDX2
 70
   64
  3
------     -----------     -----
 72
   65
 73
    2
 40
1.5
 49
1
 49
-0.5
  0
LTYPE
  2
DIVIDE
 70
   64
  3
------      -      -      ------
 72
   65
 73
    6
 40
1.27
 49
0.5
 49
-0.25
 49
0.01
 49
-0.25
 49
0.01
 49
-0.25
  0
LTYPE
  2
DIVIDE2
 70
   64
  3
------      -      -      ------
 72
   65
 73
    6
 40
0.645
 49
0.25
 49
-0.125
 49
0.01
 49
-0.125
 49
0.01
 49
-0.125
  0
LTYPE
  2
DIVIDEX2
 70
   64
  3
------      -      -      ------
 72
   65
 73
    6
 40
2.5199999999999996
 49
1
 49
-0.5
 49
0.01
 49
-0.5
 49
0.01
 49
-0.5
  0
ENDTAB
  0
TABLE
  2
STYLE
  5
3
100
AcDbSymbolTable
 70
     1
  0
STYLE
  5
10
100
AcDbSymbolTableRecord
100
AcDbTextStyleTableRecord
  2
STANDARD
 70
     0
 40
0.0
 41
1.0
 50
0.0
 71
     0
 42
0.2
  3
txt
  4
bigfont.shx
  0
STYLE
  5
26
100
AcDbSymbolTableRecord
100
AcDbTextStyleTableRecord
  2
TATEGAKI
 70
    68
 40
0.0
 41
1.0
 50
0.0
 71
     0
 42
1.0
  3
txt
  4
bigfont.shx
  0
ENDTAB
  0
TABLE
  2
LAYER
 70
    2
  0
LAYER
  2
_0-0_0
 70
   64
 62
    7
  6
CONTINUOUS
  0
LAYER
  2
ADD_LINE
 70
   64
 62
    7
  6
CONTINUOUS
  0
ENDTAB
  0
ENDSEC
  0
SECTION
  2
BLOCKS
  0
ENDSEC
  0
SECTION
  2
ENTITIES
  0
LINE
  8
_0-0_0
  6
CONTINUOUS
 62
    7
 10
419.355637300117
 20
388.75736296697937
 11
626.92107928837004
 21
388.75736296697937
  0
LINE
  8
_0-0_0
  6
CONTINUOUS
 62
    7
 10
409.35563730011791
 20
378.75736296697937
 11
409.35563730011791
 21
183.75736296697937
  0
ARC
  8
_0-0_0
  6
CONTINUOUS
 62
    7
 10
419.355637300117
 20
378.75736296697937
 40
10
 50
90
 51
180
  0
LINE
  8
_0-0_0
  6
CONTINUOUS
 62
    7
 10
411.855637300117
 20
183.75736296697937
 11
409.35563730011791
 21
183.75736296697937
  0
ARC
  8
_0-0_0
  6
CONTINUOUS
 62
    7
 10
626.48652724704016
 20
401.97334938319636
 40
13.223128692947721
 50
271.88325185788091
 51
343.23924828035013
  0
LINE
  8
_0-0_0
  6
CONTINUOUS
 62
    7
 10
624.22347412634099
 20
405.6050777723965
 11
626.94708560770778
 21
407.85041937896153
  0
LINE
  8
_0-0_0
  6
CONTINUOUS
 62
    7
 10
626.81914455844299
 20
402.3129520381824
 11
630.16738488619103
 21
404.81519673469143
  0
ARC
  8
_0-0_0
  6
CONTINUOUS
 62
    7
 10
625.65558224021606
 20
404.06488212265936
 40
2.1031253622393868
 50
132.9173622854621
 51
303.59053207862718
  0
ARC
  8
_0-0_0
  6
CONTINUOUS
 62
    7
 10
633.14896531605609
 20
399.45181271583942
 40
6.1364248543783848
 50
347.84855257359038
 51
119.07029670730958
  0
LINE
  8
_0-0_0
  6
CONTINUOUS
 62
    7
 10
419.355637300117
 20
383.75736296697937
 11
627.08539442568508
 21
383.75736296697937
  0
ARC
  8
_0-0_0
  6
CONTINUOUS
 62
    7
 10
419.355637300117
 20
378.75736296697937
 40
5
 50
90
 51
180
  0
LINE
  8
_0-0_0
  6
CONTINUOUS
 62
    7
 10
414.35563730011791
 20
378.75736296697937
 11
414.35563730011791
 21
218.67064873556933
  0
ARC
  8
_0-0_0
  6
CONTINUOUS
 62
    7
 10
633.72092475262616
 20
399.65211380972733
 40
10.634712547491141
 50
345.9141497255751
 51
129.56517507761896
  0
ARC
  8
_0-0_0
  6
CONTINUOUS
 62
    7
 10
626.48057992348186
 20
401.97722854558538
 40
18.22990132404858
 50
271.90125432662001
 51
344.36422847066552
  0
LINE
  8
_0-0_0
  6
CONTINUOUS
 62
    7
 10
411.855637300117
 20
183.75736296697937
 11
414.35563730011791
 21
218.67064873556933
  0
LINE
  8
_0-0_0
  6
CONTINUOUS
 62
    7
 10
536.18313056223315
 20
358.91761010645337
 11
547.14215314425383
 21
355.31371791481843
  0
ARC
  8
_0-0_0
  6
CONTINUOUS
 62
    7
 10
550.33689855500279
 20
363.45247316669452
 40
8.7433251849308657
 50
248.56826044380219
 51
339.80532577411128
  0
ARC
  8
_0-0_0
  6
CONTINUOUS
 62
    7
 10
539.82556563290382
 20
366.0101568237335
 40
19.530071667213669
 50
343.41083345365951
 51
63.519875805367441
  0
ARC
  8
_0-0_0
  6
CONTINUOUS
 62
    7
 10
538.13381152030479
 20
360.54115812952432
 40
25.196602983382324
 50
65.622127662390071
 51
67.131939127243555
  0
ARC
  8
_0-0_0
  6
CONTINUOUS
 62
    7
 10
539.62649302369618
 20
359.50493353163733
 40
21.000059684866443
 50
70.642387552551739
 51
153.00796243000491
  0
ARC
  8
_0-0_0
  6
CONTINUOUS
 62
    7
 10
564.85233776077803
 20
349.76980439028534
 40
47.976785391858158
 50
156.3232210020478
 51
176.361133512431
  0
LINE
  8
_0-0_0
  6
CONTINUOUS
 62
    7
 10
516.97227812736082
 20
352.81477171963252
 11
515.57151341009285
 21
311.54015298870831
  0
ARC
  8
_0-0_0
  6
CONTINUOUS
 62
    7
 10
442.30244759740708
 20
314.9955707895715
 40
73.350500456657542
 50
323.0024413957853
 51
357.29989359711487
  0
ARC
  8
_0-0_0
  6
CONTINUOUS
 62
    7
 10
453.31626931931714
 20
308.63116210496742
 40
54.748012972129757
 50
281.66082135400501
 51
321.32325615124762
  0
ARC
  8
_0-0_0
  6
CONTINUOUS
 62
    7
 10
454.58234951991699
 20
307.16939525432531
 40
58.84440725924091
 50
281.07632805798562
 51
321.89300750891368
  0
ARC
  8
_0-0_0
  6
CONTINUOUS
 62
    7
 10
457.60394033329294
 20
296.99322029102632
 40
42.523778076680244
 50
216.07120156460891
 51
279.17149717713983
  0
ARC
  8
_0-0_0
  6
CONTINUOUS
 62
    7
 10
457.11530177284703
 20
296.37120836085251
 40
47.762516295625559
 50
215.6653879743526
 51
280.58297733777198
  0
ARC
  8
_0-0_0
  6
CONTINUOUS
 62
    7
 10
444.14104032115301
 20
287.04645528323135
 40
25.785595666640351
 50
140.5823501426249
 51
215.82009824370576
  0
ARC
  8
_0-0_0
  6
CONTINUOUS
 62
    7
 10
444.13951976424005
 20
287.04702707176648
 40
31.784057915224274
 50
140.5814059512247
 51
159.56515892972311
  0
ARC
  8
_0-0_0
  6
CONTINUOUS
 62
    7
 10
438.47799089607815
 20
292.65790592966437
 40
17.862881549667279
 50
79.751664792884739
 51
142.95403819009042
  0
ARC
  8
_0-0_0
  6
CONTINUOUS
 62
    7
 10
436.91069469108697
 20
292.47168743900033
 40
22.75853989329736
 50
74.154082125881843
 51
139.57567120923241
  0
ARC
  8
_0-0_0
  6
CONTINUOUS
 62
    7
 10
437.80331975483978
 20
297.63335391739133
 40
13.17821338435277
 50
39.467743046423927
 51
73.000872182968848
  0
LINE
  8
_0-0_0
  6
CONTINUOUS
 62
    7
 10
447.97667074899118
 20
306.01000226582642
 11
456.37095345300213
 21
296.86378888814033
  0
ARC
  8
_0-0_0
  6
CONTINUOUS
 62
    7
 10
437.34374493500218
 20
299.7413452454075
 40
15.725297052789431
 50
34.077265977361243
 51
68.430050863681032
  0
LINE
  8
_0-0_0
  6
CONTINUOUS
 62
    7
 10
450.36873677840276
 20
308.55239256555137
 11
457.88158842608118
 21
297.71929193530332
  0
ARC
  8
_0-0_0
  6
CONTINUOUS
 62
    7
 10
541.41452313104219
 20
366.67180610321839
 40
13.663041129858762
 50
345.68529454175138
 51
67.753506199927457
  0
ARC
  8
_0-0_0
  6
CONTINUOUS
 62
    7
 10
533.75652152209977
 20
368.8634000217935
 40
21.62637044592018
 50
335.88092172922438
 51
345.07559757618537
  0
ARC
  8
_0-0_0
  6
CONTINUOUS
 62
    7
 10
551.49071587113485
 20
360.81578381806935
 40
2.1541125661427341
 50
262.16208593579108
 51
338.49492170884082
  0
LINE
  8
_0-0_0
  6
CONTINUOUS
 62
    7
 10
551.1969570728711
 20
358.68179536541652
 11
536.748470627605
 21
361.44520276776234
  0
ARC
  8
_0-0_0
  6
CONTINUOUS
 62
    7
 10
536.53933883955096
 20
360.16495832952137
 40
1.2972131383939751
 50
80.722503455945727
 51
254.0621180974174
  0
ARC
  8
_0-0_0
  6
CONTINUOUS
 62
    7
 10
457.0524612730369
 20
297.42187245898049
 40
0.8808576393558326
 50
219.31388653626621
 51
19.733618383181447
  0
ARC
  8
_0-0_0
  6
CONTINUOUS
 62
    7
 10
442.30244759740708
 20
314.9955707895715
 40
67.350500456657556
 50
323.0024413957853
 51
357.29989359711487
  0
LINE
  8
_0-0_0
  6
CONTINUOUS
 62
    7
 10
510.97573044340197
 20
353.01828062363552
 11
509.57817468521398
 21
311.82280282308147
  0
ARC
  8
_0-0_0
  6
CONTINUOUS
 62
    7
 10
564.78165720122115
 20
349.79368348904541
 40
53.902465444060596
 50
156.31629631483364
 51
176.57035754312099
  0
ARC
  8
_0-0_0
  6
CONTINUOUS
 62
    7
 10
538.13381152030479
 20
360.54115812952432
 40
25.196602983382324
 50
112.8680608727564
 51
154.3561955195193
  0
ARC
  8
_0-0_0
  6
CONTINUOUS
 62
    7
 10
444.13951976424005
 20
287.04702707176648
 40
31.784057915224274
 50
200.43484107027683
 51
215.64778868936153
  0
LINE
  8
_0-0_0
  6
CONTINUOUS
 62
    7
 10
409.35563730011791
 20
328.75736296697937
 11
414.35563730011791
 21
328.75736296697937
  0
LINE
  8
_0-0_0
  6
CONTINUOUS
 62
    7
 10
409.35563730011791
 20
248.75736296697937
 11
414.35563730011791
 21
248.75736296697937
  0
LINE
  8
_0-0_0
  6
CONTINUOUS
 62
    7
 10
409.35563730011791
 20
294.75736296697937
 11
414.35563730011791
 21
294.75736296697937
  0
LINE
  8
_0-0_0
  6
CONTINUOUS
 62
    7
 10
409.35563730011791
 20
282.75736296697937
 11
414.35563730011791
 21
282.75736296697937
  0
ARC
  8
_0-0_0
  6
CONTINUOUS
 62
    7
 10
312.60970793437991
 20
302.96942726496331
 40
9.2451744819190704
 50
238.9790129014151
 51
318.78506655318853
  0
ARC
  8
_0-0_0
  6
CONTINUOUS
 62
    7
 10
312.61345714517392
 20
302.9885911916665
 40
3.2635365222247419
 50
239.09599399279014
 51
322.01724634154778
  0
ARC
  8
_0-0_0
  6
CONTINUOUS
 62
    7
 10
308.4220597912531
 20
307.31695271406352
 40
15.268386668261332
 50
316.86633245586609
 51
25.810721688727945
  0
ARC
  8
_0-0_0
  6
CONTINUOUS
 62
    7
 10
308.4220597912531
 20
307.31695271406352
 40
9.2683866682613303
 50
316.86633245586609
 51
25.810721688727945
  0
ARC
  8
_0-0_0
  6
CONTINUOUS
 62
    7
 10
299.77418472772706
 20
304.41173466769351
 40
24.345628299285412
 50
23.10351395701117
 51
100.0069340544494
  0
ARC
  8
_0-0_0
  6
CONTINUOUS
 62
    7
 10
299.72699693804088
 20
304.35145589374247
 40
18.421029724111381
 50
22.336900924827813
 51
98.418988343130493
  0
ARC
  8
_0-0_0
  6
CONTINUOUS
 62
    7
 10
303.78663858379196
 20
296.14728331295032
 40
33.276783769517877
 50
104.3419316328372
 51
160.44084078772039
  0
ARC
  8
_0-0_0
  6
CONTINUOUS
 62
    7
 10
303.78663858379196
 20
296.14728331295032
 40
27.276783769517881
 50
104.3419316328372
 51
160.44084078772039
  0
ARC
  8
_0-0_0
  6
CONTINUOUS
 62
    7
 10
321.6232421510108
 20
323.2632841852685
 40
31.40097235950784
 50
235.64742983457026
 51
243.97406603372218
  0
LINE
  8
_0-0_0
  6
CONTINUOUS
 62
    7
 10
303.90418291733613
 20
297.33924119432845
 11
296.77006935547206
 21
302.41801304162846
  0
LINE
  8
_0-0_0
  6
CONTINUOUS
 62
    7
 10
296.77006935547206
 20
302.41801304162846
 11
299.86087500652411
 21
308.13702213610736
  0
LINE
  8
_0-0_0
  6
CONTINUOUS
 62
    7
 10
310.93730072426115
 20
300.18838222008435
 11
299.86087500652411
 21
308.13702213610736
  0
ARC
  8
_0-0_0
  6
CONTINUOUS
 62
    7
 10
312.60970793437991
 20
274.54529866899543
 40
9.2451744819190704
 50
41.214933446810633
 51
121.02098709857871
  0
ARC
  8
_0-0_0
  6
CONTINUOUS
 62
    7
 10
312.61345714517392
 20
274.52613474229133
 40
3.2635365222247419
 50
37.982753658457611
 51
120.90400600721154
  0
ARC
  8
_0-0_0
  6
CONTINUOUS
 62
    7
 10
308.4220597912531
 20
270.19777321989432
 40
15.268386668261332
 50
334.18927831127479
 51
43.133667544127114
  0
ARC
  8
_0-0_0
  6
CONTINUOUS
 62
    7
 10
308.4220597912531
 20
270.19777321989432
 40
9.2683866682613303
 50
334.18927831127479
 51
43.133667544127114
  0
ARC
  8
_0-0_0
  6
CONTINUOUS
 62
    7
 10
299.77418472772706
 20
273.10299126626433
 40
24.345628299285412
 50
259.9930659455506
 51
336.89648604299771
  0
ARC
  8
_0-0_0
  6
CONTINUOUS
 62
    7
 10
299.7708143282839
 20
273.12375728757343
 40
18.36549404266756
 50
260.01467827908152
 51
337.72516665145258
  0
ARC
  8
_0-0_0
  6
CONTINUOUS
 62
    7
 10
303.78663858379196
 20
281.36744262100751
 40
33.276783769517877
 50
199.55915921228956
 51
255.65806836716285
  0
ARC
  8
_0-0_0
  6
CONTINUOUS
 62
    7
 10
303.86729032573612
 20
281.42099482196841
 40
27.370719869633771
 50
199.60827163769454
 51
254.57282485474116
  0
ARC
  8
_0-0_0
  6
CONTINUOUS
 62
    7
 10
321.6232421510108
 20
254.25144174868933
 40
31.40097235950784
 50
116.02593396627771
 51
124.3525701654234
  0
LINE
  8
_0-0_0
  6
CONTINUOUS
 62
    7
 10
303.90418291733613
 20
280.17548473962938
 11
296.77006935547206
 21
275.09671289233052
  0
LINE
  8
_0-0_0
  6
CONTINUOUS
 62
    7
 10
296.77006935547206
 20
275.09671289233052
 11
299.86087500652411
 21
269.37770379785047
  0
LINE
  8
_0-0_0
  6
CONTINUOUS
 62
    7
 10
310.93730072426115
 20
277.32634371387348
 11
299.86087500652411
 21
269.37770379785047
  0
ARC
  8
_0-0_0
  6
CONTINUOUS
 62
    7
 10
316.47060003816114
 20
288.75736296697937
 40
47.780153578646136
 50
157.1807896573446
 51
202.81921034266031
  0
ARC
  8
_0-0_0
  6
CONTINUOUS
 62
    7
 10
316.60661882223712
 20
288.75736296697846
 40
41.916228895187267
 50
156.786492498699
 51
203.2135075013054
  0
LINE
  8
_0-0_0
  6
CONTINUOUS
 62
    7
 10
268.69044645951499
 20
207.45955316674849
 11
268.69044645951499
 21
388.75736296697937
  0
LINE
  8
_0-0_0
  6
CONTINUOUS
 62
    7
 10
250.69044645951499
 20
207.45955316675145
 11
250.6904464595159
 21
388.75736296697937
  0
LINE
  8
_0-0_0
  6
CONTINUOUS
 62
    7
 10
250.6904464595159
 20
388.75736296697937
 11
268.69044645951408
 21
388.75736296697937
  0
ARC
  8
_0-0_0
  6
CONTINUOUS
 62
    7
 10
206.77118498464893
 20
302.96942726496331
 40
9.2451744819190704
 50
221.2149334467951
 51
301.02098709857978
  0
ARC
  8
_0-0_0
  6
CONTINUOUS
 62
    7
 10
206.76743577385491
 20
302.9885911916665
 40
3.2635365222247419
 50
217.98275365846541
 51
300.9040060072104
  0
ARC
  8
_0-0_0
  6
CONTINUOUS
 62
    7
 10
210.95883312777596
 20
307.31695271406352
 40
15.268386668261332
 50
154.18927831126649
 51
223.13366754413431
  0
ARC
  8
_0-0_0
  6
CONTINUOUS
 62
    7
 10
210.95883312777596
 20
307.31695271406352
 40
9.2683866682613303
 50
154.18927831126649
 51
223.13366754413431
  0
ARC
  8
_0-0_0
  6
CONTINUOUS
 62
    7
 10
219.60670819130291
 20
304.41173466769351
 40
24.345628299285412
 50
79.993065945557063
 51
156.89648604298301
  0
ARC
  8
_0-0_0
  6
CONTINUOUS
 62
    7
 10
219.65389598098795
 20
304.35145589374247
 40
18.421029724111381
 50
81.581011656859658
 51
157.66309907517314
  0
ARC
  8
_0-0_0
  6
CONTINUOUS
 62
    7
 10
215.59425433523688
 20
296.14728331295032
 40
33.276783769517877
 50
19.559159212276771
 51
75.658068367181897
  0
ARC
  8
_0-0_0
  6
CONTINUOUS
 62
    7
 10
215.59425433523688
 20
296.14728331295032
 40
27.276783769517881
 50
19.559159212276771
 51
75.658068367181897
  0
ARC
  8
_0-0_0
  6
CONTINUOUS
 62
    7
 10
197.75765076801895
 20
323.2632841852685
 40
31.40097235950784
 50
296.02593396626622
 51
304.35257016541408
  0
LINE
  8
_0-0_0
  6
CONTINUOUS
 62
    7
 10
215.47671000169294
 20
297.33924119432845
 11
222.61082356355791
 21
302.41801304162846
  0
LINE
  8
_0-0_0
  6
CONTINUOUS
 62
    7
 10
222.61082356355791
 20
302.41801304162846
 11
219.52001791250495
 21
308.13702213610736
  0
LINE
  8
_0-0_0
  6
CONTINUOUS
 62
    7
 10
208.44359219476792
 20
300.18838222008435
 11
219.52001791250495
 21
308.13702213610736
  0
ARC
  8
_0-0_0
  6
CONTINUOUS
 62
    7
 10
206.77118498464893
 20
274.54529866899543
 40
9.2451744819190704
 50
58.979012901421889
 51
138.78506655320544
  0
ARC
  8
_0-0_0
  6
CONTINUOUS
 62
    7
 10
206.76743577385491
 20
274.52613474229133
 40
3.2635365222247419
 50
59.095993992789161
 51
142.01724634153118
  0
ARC
  8
_0-0_0
  6
CONTINUOUS
 62
    7
 10
210.95883312777596
 20
270.19777321989432
 40
15.268386668261332
 50
136.86633245586933
 51
205.81072168873129
  0
ARC
  8
_0-0_0
  6
CONTINUOUS
 62
    7
 10
210.95883312777596
 20
270.19777321989432
 40
9.2683866682613303
 50
136.86633245586933
 51
205.81072168873129
  0
ARC
  8
_0-0_0
  6
CONTINUOUS
 62
    7
 10
219.60670819130291
 20
273.10299126626433
 40
24.345628299285412
 50
203.10351395700951
 51
280.00693405444292
  0
ARC
  8
_0-0_0
  6
CONTINUOUS
 62
    7
 10
219.61007859074493
 20
273.12375728757343
 40
18.36549404266756
 50
202.2748333485487
 51
279.9853217208962
  0
ARC
  8
_0-0_0
  6
CONTINUOUS
 62
    7
 10
215.59425433523688
 20
281.36744262100751
 40
33.276783769517877
 50
284.3419316328181
 51
340.44084078771442
  0
ARC
  8
_0-0_0
  6
CONTINUOUS
 62
    7
 10
215.51360259329294
 20
281.42099482196841
 40
27.370719869633771
 50
285.42717514524452
 51
340.39172836230341
  0
ARC
  8
_0-0_0
  6
CONTINUOUS
 62
    7
 10
197.75765076801895
 20
254.25144174868933
 40
31.40097235950784
 50
55.647429834587967
 51
63.974066033733862
  0
LINE
  8
_0-0_0
  6
CONTINUOUS
 62
    7
 10
215.47671000169294
 20
280.17548473962938
 11
222.61082356355791
 21
275.09671289233052
  0
LINE
  8
_0-0_0
  6
CONTINUOUS
 62
    7
 10
222.61082356355791
 20
275.09671289233052
 11
219.52001791250495
 21
269.37770379785047
  0
LINE
  8
_0-0_0
  6
CONTINUOUS
 62
    7
 10
208.44359219476792
 20
277.32634371387348
 11
219.52001791250495
 21
269.37770379785047
  0
ARC
  8
_0-0_0
  6
CONTINUOUS
 62
    7
 10
202.91029288086793
 20
288.75736296697937
 40
47.780153578646136
 50
337.18078965733503
 51
22.819210342660892
  0
ARC
  8
_0-0_0
  6
CONTINUOUS
 62
    7
 10
202.77427409679194
 20
288.75736296697846
 40
41.916228895187267
 50
336.78649249870239
 51
23.213507501294067
  0
LINE
  8
_0-0_0
  6
CONTINUOUS
 62
    7
 10
268.69044645951408
 20
183.75736296697937
 11
250.69044645951499
 21
183.75736296697937
  0
LINE
  8
_0-0_0
  6
CONTINUOUS
 62
    7
 10
248.28255625167776
 20
183.75736296697937
 11
271.09833666735176
 21
183.75736296697937
  0
ARC
  8
_0-0_0
  6
CONTINUOUS
 62
    7
 10
296.51929313525807
 20
179.95627666189944
 40
49.475078286523988
 50
164.70424336194117
 51
174.31597183454784
  0
ARC
  8
_0-0_0
  6
CONTINUOUS
 62
    7
 10
182.00303808664898
 20
209.11009941523844
 40
68.707236677800452
 50
346.44610921338534
 51
358.62345748648704
  0
ARC
  8
_0-0_0
  6
CONTINUOUS
 62
    7
 10
222.861599783771
 20
179.95627666189944
 40
49.475078286523988
 50
5.6840281654522258
 51
15.295756638061471
  0
ARC
  8
_0-0_0
  6
CONTINUOUS
 62
    7
 10
337.37785483238076
 20
209.11009941523844
 40
68.707236677800452
 50
181.37654251351313
 51
193.55389078661122
  0
CIRCLE
  8
_0-0_0
  6
CONTINUOUS
 62
    7
 10
259.69044645951499
 20
213.75736296697937
 40
3.0000000000000004
  0
CIRCLE
  8
_0-0_0
  6
CONTINUOUS
 62
    7
 10
259.69044645951499
 20
354.75736296697937
 40
3.0000000000000004
  0
LINE
  8
_0-0_0
  6
CONTINUOUS
 62
    7
 10
249.31328574509598
 20
410.28682635721839
 11
270.06760717393399
 21
410.28682635721839
  0
LINE
  8
_0-0_0
  6
CONTINUOUS
 62
    7
 10
250.6904464595159
 20
388.75736296697937
 11
248.31996024229011
 21
409.17148145929832
  0
LINE
  8
_0-0_0
  6
CONTINUOUS
 62
    7
 10
268.69044645951408
 20
388.75736296697937
 11
271.06093267673987
 21
409.17148145929832
  0
ARC
  8
_0-0_0
  6
CONTINUOUS
 62
    7
 10
249.31328574509598
 20
409.28682635721839
 40
1
 50
90
 51
186.62351862556361
  0
ARC
  8
_0-0_0
  6
CONTINUOUS
 62
    7
 10
270.06760717393399
 20
409.28682635721839
 40
1
 50
353.37648137443648
 51
90.000000000000057
  0
LINE
  8
_0-0_0
  6
CONTINUOUS
 62
    7
 10
250.83485324935509
 20
410.28682635721839
 11
250.83485324935509
 21
401.96175676042049
  0
LINE
  8
_0-0_0
  6
CONTINUOUS
 62
    7
 10
251.83485324935509
 20
410.28682635721839
 11
251.83485324935509
 21
401.96175676042049
  0
LINE
  8
_0-0_0
  6
CONTINUOUS
 62
    7
 10
268.54603966967488
 20
410.28682635721839
 11
268.54603966967579
 21
401.96175676042049
  0
LINE
  8
_0-0_0
  6
CONTINUOUS
 62
    7
 10
267.54603966967579
 20
410.28682635721839
 11
267.54603966967579
 21
401.96175676042049
  0
LINE
  8
_0-0_0
  6
CONTINUOUS
 62
    7
 10
254.79408672692807
 20
410.28682635721839
 11
254.79408672692898
 21
401.96175676042049
  0
LINE
  8
_0-0_0
  6
CONTINUOUS
 62
    7
 10
255.79408672692807
 20
410.28682635721839
 11
255.79408672692807
 21
401.96175676042049
  0
LINE
  8
_0-0_0
  6
CONTINUOUS
 62
    7
 10
259.06152118220689
 20
410.28682635721839
 11
259.06152118220689
 21
401.96175676042049
  0
LINE
  8
_0-0_0
  6
CONTINUOUS
 62
    7
 10
260.06152118220689
 20
410.28682635721839
 11
260.06152118220689
 21
401.96175676042049
  0
LINE
  8
_0-0_0
  6
CONTINUOUS
 62
    7
 10
264.51568205978492
 20
410.28682635721839
 11
264.51568205978492
 21
401.96175676042049
  0
LINE
  8
_0-0_0
  6
CONTINUOUS
 62
    7
 10
263.51568205978492
 20
410.28682635721839
 11
263.51568205978492
 21
401.96175676042049
  0
LINE
  8
_0-0_0
  6
CONTINUOUS
 62
    7
 10
270.22373987632
 20
401.96175676042049
 11
249.15715304270998
 21
401.96175676042049
  0
ARC
  8
_0-0_0
  6
CONTINUOUS
 62
    7
 10
248.28255625167776
 20
184.75736296697937
 40
1
 50
174.31597183454633
 51
270
  0
ARC
  8
_0-0_0
  6
CONTINUOUS
 62
    7
 10
271.09833666735176
 20
184.75736296697937
 40
1
 50
270
 51
5.6840281654536904
  0
ENDSEC
  0
EOF
